Afghan Whigs

Afghan Whigs - Summers Kiss guitar tab

summer's kiss

--------------------------------------------------------------------------------

song: dulli

tabs: zanzi

Chords used

E: x7999x

C#m:x46654

A: 577655

Intro

Something like:

e--------------------------

B-----------------3--------

G---------------4----------

D--2----------2------------

A--2----------------------

E--0-----------------------

Then play this B-note repeatedly: B---12---- Until:

E C#m A A

Yeah!

E C#m A A

E C#m A A

E C#m A A

Verse 1:

E C#m A A

Did you feel the breeze?

E C#m A A

My love

E C#m A A

Summer's kiss is over, baby

E C#m A A

Over

E C#m A A

Do you know the words?

E C#m A A

Sing along with me

E C#m A A

And put on your rose fur coat, baby

E C#m A A

It's nineteen-seventy-three

Chorus

Guitar

e----------------------------------|-----------------|-----------------

B-9101010---9-9-9--Six times then--|-910101010101010-|1010101010101010-

G-9-9-9-9---9-9-9------------------|-9-9-9-9-9-9-9-9-|-9-9-9-9-9-9-9-9-

D----------------------------------|-----------------|-----------------

A----------------------------------|-----------------|-----------------

E----------------------------------|-----------------|-----------------

My love, this dream I have each night

I stare into a blinding light

Alone, I stare

Verse: (chords as above)

Demons, be gone

Away from me

And come on down to the corner

I got something i want you to see

The burning sun

Too hot for shade

Come lay down in the cool grass

With me, baby let's watch that

Summer fade

Chorus

Same guitar as above bot throw in this just before the solo

e------------------|-----------------

B-1212121212121212-|1212121212121212-

G--9-9-9-9-9-9-9-9-|-9-9-9-9-9-9-9-9-

D------------------|-----------------

A------------------|-----------------

E------------------|-----------------

My love, this dream I have each night

I stare into a blinding light

Alone, I stare

So sweet

This dream is not a dream

I wake with it

Inside of me

Alone, I swear

Solo (the E-C#m-A-A progreesion is played along)

e----12----12------12-----12----12------12----12----12------12---------------------------------

B-12b---12b---12b------12b---12b---12b-----12b---12b---12b------12---9-10-9-10-9--7--9-7/-5----

G----------------------------------------------------------------------------------------------

D----------------------------------------------------------------------------------------------

A----------------------------------------------------------------------------------------------

E----------------------------------------------------------------------------------------------

continued

e----12----12-14--12-14----12----12-14--12b----12----12----------------------------------------

B-12b---12b-------------12b---12b-----------12b---12b---12b----9-10-9-10-9--7--9-7-9-10-9-5----

G----------------------------------------------------------------------------------------------

D----------------------------------------------------------------------------------------------

A----------------------------------------------------------------------------------------------

E----------------------------------------------------------------------------------------------

Get this song at:  amazon.com sheetmusicplus.com

Share your thoughts

0 Comments found