Afghan Whigs

Afghan Whigs - Something hot guitar tab

somethin' hot

--------------------------------------------------------------------------------

song: dulli

tabs: Neil Wilkinson, hamlett

Intro/Verse:

Em Csus4 Em Em Dsus2 Em

-0- -3- -0- -0- -X- -0-

-0- -3- -0- -0- -3- -0-

-0- -0- -0- -0- -2- -0-

-2- -0- -2- -2- -0- -2-

-2- -3- -2- -2- -X- -2-

-0- -X- -0- -0- -X- -0-

then..

Csus4 G/B Em

-3- -3- -0-

-3- -3- -0-

-0- -0- -0-

-0- -0- -2-

-3- -2- -2- twice..

-X- -X- -0-

or if you like your chords of the power variety:

play once play once play twice

e:------------------|---------------------|-------------------|

B:------------------|---------------------|-------------------|

G:----------5--5----|-----------7--7------|-------------------|

D:-2--2--2--5--5--2-|-2---2--2--7--7---2--|--5---5--4--4---2--|

A:-2--2--2--3--3--2-|-2---2--2--5--5---2--|--3---3--2--2---2--|

E:-0--0--0--------0-|-0---0--0---------0--|----------------0--|

lead

e:------------------------------|

B:---/5-5--5--5--3---3--3---3---|

G:------------------------------|

D:------------------------------|

A:------------------------------|

E:------------------------------|

1st Chorus:

Csus4 G/B Em

e:-------------------|

B:-------------------|

G:-------------------|

D:--5---5--4--4---2--|

A:--3---3--2--2---2--|

E:----------------0--|

2nd Chorus

e:-------------------|

B:-------------------|

G:--5---5--7--7---9--|

D:--5---5--7--7---9--|

A:--3---3--5--5---7--|

E:-------------------|

--------------------------------------------------------------------------------bass

--------------------------------------------------------------------------------

Verse:

A--2---2-3-3-3-7--|-2---2-5-5-5-7--|

E------------------|-----------------|

A--3---3-2-2-2-----|-3---3-2-2-2-----|

E--------------0---|-------------0---|

Chorus:

A--3---3-2-2-2-----|-3---3-2-2-2-----|

E--------------0---|-------------0---|

--------------------------------------------------------------------------------lyrics

--------------------------------------------------------------------------------

intro/verse

I got your phone number, baby

I'll call you sometime

I think I might, be out tonight

Maybe give you a ride

lead kicks in

Cocktails for two, down lover's lane

I wantcha so bad, after tonight

I'll never walk the same

And you're to blame

chorus

I wanna getcha high

I wanna get next to you

I wanna feel everything aboutch, girl

I wanna feel good

You make me feel good

verse

Baby, you don't know

Just how I lie awake

And dream a while, about your smile

And the way you make yo ass shake

If that ain't love

I guess I'll never know

A sweeter lie, you'd be surprised

Just how far I'd go

To make it so

2nd chorus

solo

2nd chorus w/1st chorus

Get this song at:  amazon.com sheetmusicplus.com

Share your thoughts

0 Comments found