Afghan Whigs

Afghan Whigs - Now You Know guitar chord

From: "Manuel Zanzi"

Subject: a/afghan_whigs/now_you_know.crd

Date: Wed, 03 Jun 1998 02:16:13 PDT

Now You Know

By Afghan Whigs

Album: Gentlemen

Written by Greg Dulli

Transribed by Manuel Zanzi (manuelzanzi@hotmail.com)

Intro Transcribed by Brian Ebbitt (sten@ix.netcom.com)

Intro w/ slide (listen for the pattern)

G5 E5 G5 E5 G5 E5 D5 C5 Bb5 C5 Bb5 Ab5

e----------------------------------------------

b----------------------------------------------

g--12--9--12--9--12--9--7---5---3---5--3---1---

d--12--9--12--9--12--9--7---5---3---5--3---1---

a----------------------------------------------

E----------------------------------------------

3 times then

e---------------------

B---------------------

G-/9~~--/7~~-7-7/4~~--

D---------------------

A---------------------

E---------------------

Riff1

E5 D5 C5

e---------------------------------------------------------------

B---------------------------------------------------------------

G-9--9-9-9--9-9-9-7--7-7-7--7-7-7--5--5-5--5/7/5--5--5-5--5/7/5-

D-9--9-9-9--9-9-9-7--7-7-7--7-7-7--5--5-5--5/7/5--5--5-5--5/7/5-

A-7--7-7-7--7-7-7-5--5-5-5--5-5-5--3--3-3--3/5/3--3--3-3--3/5/3-

E---------------------------------------------------------------

Riff2

Em D5(2) C/G

e-0--0-0-0--0-0-0-------------------------------------------

B-0--0-0-0--0-0-0-3--3-3-3--3-3-3--1--1-1-1--1-1-1-1--1-1-1-

G-0--0-0-0--0-0-0-2--2-2-2--2-2-2--0--0-0-0--0-0-0-0--0-0-0-

D-2--2-2-2--2-2-2-0--0-0-0--0-0-0--2--2-2-2--2-2-2-2--2-2-2-

A-2--2-2-2--2-2-2-0--0-0-0--0-0-0--3--3-3-3--3-3-3-3--3-3-3-

E-0--0-0-0--0-0-0------------------3--3-3-3--3-3-3-3--3-3-3-

Riff3

E5(2) F#5 G5

e---------------------

B---------------------

G---------------------

D-2--2-2-4--4-4--5--5-

A-2--2-2-4--4-4--5--5-

E-0--0-0-2--2-2--3--3-

Riff4

A5 C5(2)

e----------------------------------------

B----------------------------------------

G----------------------------------------

D-7-7-7-7-7--7-7-7-7-7--10--10-10--10-10-

A-7-7-7-7-7--7-7-7-7-7--10--10-10--10-10-

E-5-5-5-5-5--5-5-5-5-5--8---8--8---8--8--

Lyrics:

Intro

(riff1)

E5 D5 C5

Since you're aware...

E5 D5 C5

E5 D5 C5

(riff2)

Em D5(2) C/G

Now I can watch you chew...

Em D5(2) C/G

intro

(Riff1)

E5 D5 C5

Did you have blinders on...

E5 D5 C5

(riff2)

Em D5(2) C/G

I thought you knew...

Em D5(2) C/G

(riff3)

E5(2) F#5 G5

Listen up...

E5(2) F#5 G5

E5(2) F#5 G5 E5(2) F#5 G5

E5(2) F#5 G5

E5(2) F#5 G5

E5(2) F#5 G5 E5(2) F#5 G5

Riff4 x3

(Riff3)

E5(2) F#5 G5

-

E5(2) F#5 G5

Spit it up...

E5(2) F#5 G5

E5(2) F#5 G5

(riff1)

E5 D5 C5

Tell me is it the same...

E5 D5 C5

E5 D5 C5

(Riff2)

That's all folks...

corrections and all that kind of stuff are of course welcome.

Get this song at:  amazon.com sheetmusicplus.com

Share your thoughts

0 Comments found