Afghan Whigs

Afghan Whigs - Night By Candlelight guitar tab

night by candlelight

--------------------------------------------------------------------------------

song: dulli

tabs: zanzi

intro guitar

e--------------------------

B--------------------------

G--------------------------

D----------4--5--4---------

A-2--4--5-----------5--4---

E--------------------------

intro lead

e----------------------------------------------------------

B----------------------------------------------------------

G-4---4/2-2---2/4----2-------------------------------------

D-----------------------5-5/4---4h5p4--4/2---------4-5-4-5-

A------------------------------------------5—-5/7----------

E----------------------------------------------------------

verse (two guitars arranged for one)

e--------------------------------------------------

B---0-0---0-0---0-0---0-0---0-0---0-0---0-0---0-0--

G--------------------------------------------(2-2)-

--------------------------------------------------------------------------------lyrics

--------------------------------------------------------------------------------

Intro

Verse

Repeat these words

After me

In all honesty

Repeat these words

After me

If you dare to believe this

Yourself

Chorus (same notes as intro + chorus lead)

Am I vain? Have I shame?

Are my thoughts of a man

Who can call himself sane?

Do I blame, all my pain

On the wickedness

I have arranged?

If I do, bring it down

Verse

Repeat these words

After me

In all honesty

Repeat these words

After me

If you dare to believe this

Yourself

Chorus

Am I vain? Have I shame?

Are my thoughts of a man

Who can call himself sane?

Is my fate, all the same

As the man who has

Walked the line straight

If it is, bring it down

Bridge

And I, I must rely, my dear

And I, cannot deny, my dear

There will be a reckoning

Which was, is

And is to come

Verse

Repeat these words

After me

In all honesty

Repeat these words

After me

If you dare

To believe

Get this song at:  amazon.com sheetmusicplus.com

Share your thoughts

0 Comments found