Afghan Whigs

Afghan Whigs - My Enemy guitar tab

my enemy

--------------------------------------------------------------------------------

song: dulli

tabs: zanzi, hamlett

Riff 1:

e------------------------------------

B--5-5-5-----4--5--4--5--------------

G-------6--6-6--6--6--6--------------

D------------------------------------

A------------------------------------

E------------------------------------

Riff 2

e-------------------------------

B--5-5-5-5-5-5-5-5-4------------

G--------------------4----------

D-------------------------------

A-------------------------------

E-------------------------------

Chords used:

EADGBE

C#5: x466xx

A5: 577xxx

G#5: 466xxx

B5: x244xx or

799xxx

D#5: x688xx

E5: x79900

Intro (guitar1 plays riff1 all the way, while guitar2 plays chords)

C#5 A5

G#5 C#5

G#5 A5

G#5 C#5

Verse (same as intro)

C#5 A5

I hear the whispers, baby

G#5 C#5

If what they say is true

G#5 A5

They say I killed the brother

G#5 C#5

To fall in love with u

Break

Gt.1 continues chord prog. from verse

Gt.2 plays this...

Lots of wah, and some of it is with a slide

e:---------------------------------------------------------------------------|

B:--2--2--2--2--2--2--2--2--9b--9b--9b--9b--12-12-12-12-12-12-12-14-14-14-14-|

G:---------------------------------------------------------------------------|

D:---------------------------------------------------------------------------|

A:---------------------------------------------------------------------------|

E:---------------------------------------------------------------------------|

Blury bit, not quite right

e:-----------------------------------21/19/16--|

B:12-14----12-14-12-14-12-14-14-12-------------|

G:------13-------------------------------------|

D:---------------------------------------------|

A:---------------------------------------------|

E:---------------------------------------------|

C#5 A5

These words I heard them once before

G#5 C#5

A conversation I believe

G#5 A5

How does a man begin 2 fall

G#5 C#5

When he does practice 2 deceive?

Pre Chorus:

Guitar 2: Slightly muted

e:---------4----------------------------4-------------------------------|

B:------5-----5--4--5--4--5----------5-----5--4--5--4--5----------------|

G:---6-----------------------6----6-----------------------6--repeat-----|

D:-----------------------------------------------------------till-------|

A:-----------------------------------------------------------Chorus-----|

E:----------------------------------------------------------------------|

There was a voice...

Guitar 2:

C#5 A5

There was a voice behind my back

G#5 C#5

His face I could not see it clear

G#5 A5

The voice was so familiar, though

G#5 C#5 (end riff1) B5 C#5 D#5 E5

I knew my enemy was near, I knew my enemy was near

Chorus:(guitar plays E5 all the way through With this bass riff:

(E: 4----5--7--7--9--9--7--7--5---

The sun iz gone

And the sky iz black

So get your ass out from

Behind my back

I told u once

And I told u all

And I told it like it was (sic)

Post chorus:

A5 B5 then riff 2

Repeat 3 times

Then play intro verse thing

Verse (with riff1)

C#5 A5

U can't

G#5 C#5

Have me

G#5 A5

If u can't

G#5 C#5

Catch me

C#5 A5

Out of your mind bent on revenge

G#5 C#5

To think I once called u my friend

G#5 A5

U want the dog? I'll let him out

G#5 C#5 (end riff 1) B5 C#5 D#5 E5

Come and get some baby, Come and get some baby

Chorus

as above

Play E5 until end...

Thanks to Lars Olsvenne (lars.olsvenne@swipnet.se) for sending me this info.

Thanks to Johan (johan@comtech-data.se) for sending me this info.

Get this song at:  amazon.com sheetmusicplus.com

Share your thoughts

0 Comments found