Afghan Whigs

Afghan Whigs - If I Were Going guitar tab

if i were going

--------------------------------------------------------------------------------

song: dulli

tabs: zanzi, hamlett

Verse riff

zanzi

Em add9 F# G

e------------------------------

B---8-----8--8-8-8-7--7--3--3--

G---9h11-11-11-9-7-6--6--0--0--

D------------------------------

A------------------------------

E-0----------------------------

hamlett

e--------------------------------

B---7h8--8-8-8-7-7---0h1-1p0--0--

G---0------0-0-0-----0--------0--

D--------------------------------

A--------------------------------

E-0------------------------------(repeat)

Bass goes something like

G------------------------------

D------------------------------

A-7----------------9(10)-10(9)-

E------------------------------

But it varies a lot... the tabs in parentesis are the most common

variations...

Chorus

zanzi

e-------------------------------------------------

B--8/10-10-10-10-10-10-8--8/10-10-10-10-10-10-8---

G--7/-9--9--9--9--9--9-9--7/-9--9--9--9--9--9-9---

D-------------------------------------------------

A-------------------------------------------------

E-------------------------------------------------

hamlett

e---------(8)(8)-------------------

B---7h8--8-8--8--7-7---------------

G---0------0--0--0-----------------

D--------------------------------

A--------------------------------

E--------------------------------(repeat)

(note in bracket is only there sometimes)

bass: With a lot af variations obviously... Most common though:

G-------------------------------------------------

D-------------------------------------------------

A-12----------------------10----------------------

E---(let ring)------------------------------------

Post chorus

zanzi

e----------------------------

B---8-----8-8--8-----8--8-8--

G---9h11-11-9--9h11-11-11-9--

D----------------------------

A----------------------------

E-0--------------------------

hamlett

some variations on this

e--------------------------------

B------0h1-1p0--0----------------

G------0--------0----------------

D--------------------------------

A--------------------------------

E-0------------------------------

Bass plays an E

--------------------------------------------------------------------------------lyrics

--------------------------------------------------------------------------------

Intro/verse

What should I tell her?

She's going to ask

If I ignore it, it gets uncomfortable

She'll want to argue about the past

Still I think she believes me

Every word I say

I think I'm starting to believe it all myself

Go ask the gentlemen who play it

But hate to pay

Chorus

And it don't bleed, and it don't breathe

It's locked its jaws & now it's swallowing

It's in our heart, it's in our heads

It's in our love, baby, it's in our bed

Postchorus

Verse2

It holds my arms down, sits upon my chest

It waves its finger at me every night & day

And it don't rest

Chorus

And it don't breathe and it don't bleed

It's locked its jaws and now it's swallowing

It's all a lie, it's nearly dead

It's in our hope, baby, it's in our bed

Postchorus... Fade out

Get this song at:  amazon.com sheetmusicplus.com

Share your thoughts

0 Comments found