Afghan Whigs

Afghan Whigs - Going To Town guitar tab

going to town

--------------------------------------------------------------------------------

song: dulli

tabs: zanzi, paxton

Intro

e------------------------------------------

B------------------------------------------

G------------------------------------------

D------------------------------------------

A-7--7--7--7--7-7-7-7-7--7--7--7--5-5-5-5--

E-0--0--0--0--0-0-0-0-0--0--0--0--0-0-0-0--

the comes a second guitar in with something like this riff

RIFF:

e----------------------

B----------------------

G--7h9-9-7h9-9--9-9----

D--9---9-9---9--9-9----

A----------------------

E----------------------

Verse

(paxton)

Although the rule of thumb "When in doubt, play E minor" will get you

through most Afghan Whigs songs, this one actually has a few other chords.

Here they are:

Em D

Lover mine, Get your coat and come outside

CMaj7 Bm Em (with riff)

I wanna take you for a ride, On into town

Em D

Lover fair, We'll be looking sharp, I swear

CMaj7 Bm Em (with riff)

I want them all to stop and stare, When we take 'em down

I don't remember for certain if John is holding an E through all that or

not, but I don't think so -- I think he follows the chords. Also, I tend

to voice the chords a little more thickly (like Em11, Dadd9, CMaj9, Bm7.

etc.), but I think I'm probably the only one who does that -- I think the

guitars just play the basic chords.

Chorus Chords

(paxton)

G D/F# - Em D - C Bm - Em (Repeat)

(guitar plays something like this)

e-2-3-------2-3-------2-3-------2-3-------

B-----0-0-0-----0-0-0-----0-0-0-----0-0-0-

G-----0-0-0-----0-0-0-----0-0-0-----0-0-0-

D-----------------------------------------

A-----------------------------------------

E-----------------------------------------

While bass plays this twice

G-----------------------------------

D-----------------------------------

A---5---4---2---0-------------------

E-------------------3---2---0---0---

--------------------------------------------------------------------------------lyrics

--------------------------------------------------------------------------------

intro

verse (same as above)

And as we ride

Away into the countryside

I feel as though I must confide

There is a cost

When you say

Now we got Hell to pay

Don't worry, baby, that's okay

I know the boss

chorus

Go to town, burn it down, turn around

and get your stroll on, baby

I'll get the car

You get the match

And gasoline

End with intro thing.

--------------------------------------------------------------------------------

Get this song at:  amazon.com sheetmusicplus.com

Share your thoughts

0 Comments found