Afghan Whigs

Afghan Whigs - Gentlemen guitar tab

gentlemen

--------------------------------------------------------------------------------

song: dulli

tabs: zanzi, hamlett

Intro/Chorus:

e--------------------------------------------------

B--------------------------------------------------

G-444/99999/444/777/1212/444/99999/77777/1212/1414-

D--------------------------------------------------

A-222/77777/222/555/1010/222/77777/55555/1010/1212-

E--------------------------------------------------

Continued...

e------------------------------------------------

B------------------------------------------------

G-444/99999/444/777/1212/444/99999/77/6-7-6-4----

D------------------------------------------------

A-222/77777/222/555/1010/222/77777/55/4-5-4-2-0--

E------------------------------------------------

Verse riff (played also under solo):

zanzi

e-7-7--7--7-8-7-|----5---------------

B-7-7--7--7-8-7-|----5---------------

G---------------|----6---4-----------

D-play 3 times--|-7------5-----------

A-then>>>>------|-7------5-----------

E---------------|-5------3----5--3-5-

hamlett

e-000000000000|--------------

B-000-0-0h3p0-|--------------

G-444-4-4-4-4-|--------------

D-444-4-4-4-4-|-5--4--5--4---

A-222-2-2-2p0-|-5--4--5--4---

E-------------|-3--2--3--2---(repeat)

play 3 times

then>>>>

repeat all this as many times as necesary under verse and solo

Bridge/outro

e-------------|-----------------

B-------------|-----------------

G----4b-4b-4b-|-----------------

D-------------|------0------0---

A-------------|---2------2------

E-0-----------|-2------3--------

For the end of bridge/outro repeat first part...

--------------------------------------------------------------------------------lyrics

--------------------------------------------------------------------------------

Intro

Verse riff:

Your attention, please

Now turn off the light

Your infection, please

I haven't got all night

Chorus

Understand, do you understand?

Understand, I'm a gentleman

Verse riff

I stayed in too long

But she was the perfect fit

And we dragged it out so long this time

Started to make each other sick

But now I've got time for you

For you, you, you and me too

Well, come and get it, come and get it

'Cause I'm done

Chorus

Understand, do you understand?

Understand, I'm a gentleman

Bridge(3 times all of it, then just first part twice):

I waited for the joke, it never did arrive

And words I thought I'd smoke

Verse riff

Let me in I'm cold

All messed up but nowhere to go

You got indecision, and indecision is my enemy

Unlock the cabinet, hey hey hey

I'll take whatever you got

Now I'm on it, now I'm on it

And you're done

Bridge/outro Bridge(7 times all of it, then the first part four

times)

I waited for the joke

It never did arrive

And words I thought I'd choke

I hardly recognize

--------------------------------------------------------------------------------

Get this song at:  amazon.com sheetmusicplus.com

Share your thoughts

0 Comments found