Afghan Whigs

Afghan Whigs - Fountain And Fairfax guitar tab

fountain and fairfax

--------------------------------------------------------------------------------

song: Dulli

tabs: zanzi, hamlett

Intro:

v: downstrokes

^: upstrokes

v ^ ^ v ^ v ^ ^ ^ ^

e-0--0-0-0--0-0-0--0-0-0--

B-0------0----0-----------

G-------------------------

D-------------------------

A-------------------------

E-------------------------

Verse guitar:

I play this riff on the high e string, using the equivilent notes.

It's no different really, but I think it sounds better on the higher

string. Plus, some of the parts later on make more sense this way

e---------------------------------

B-12-10-8--10-8-10--7-8-7-5-7-5---

G---------------------------------

D---------------------------------

A---------------------------------

E---------------------------------

While another guitar keeps playing the e-string and B-string open

simulating an e-chord. I think that the song is in E-minor...

Chorus:

Various similar riffs:

I don't agree with these 100%. The varitions may be right, but I think the

notes are wrong. I use variations of the verse riff notes for this part.

I'll post my way with the next update.

Riff1

e--------------------------------------------------------------------

B-12b13b12-----12b13b12-----12b14b12-12-10-8-10-12-12-12/13-12-12-10-

G----------12-----------12-------------------------------------------

D--------------------------------------------------------------------

A--------------------------------------------------------------------

E--------------------------------------------------------------------

Riff2

e----------------------------------------------------------

B-12b13b12-----12b13b12-----12b14b12-12--15/12-10-8-7-8-7--

G----------12-----------12---------------------------------

D----------------------------------------------------------

A----------------------------------------------------------

E----------------------------------------------------------

Riff3

e--------------------------------------------------------------------

B-12b13b12-----12b13b12-----12b14b12-12--15/13-15/17-15-17/19-19-17--

G----------12-----------12-------------------------------------------

D--------------------------------------------------------------------

A--------------------------------------------------------------------

E--------------------------------------------------------------------

First Chorus: Riff 1, Riff2, then back to verse.

Second Chorus: Riff 1, Riff3, then back to verse.

Third Chorus: Riff 1, Riff2, Riff1, Riff3 then to intro/outro.

Break:

Guitar repeats an E-octave

e----------------------------------

B----------------------------------

G-9--also this for some--9-9-9-7-9-

D----variations--------------------

A-7--------------------------------

E----------------------------------

--------------------------------------------------------------------------------lyrics

--------------------------------------------------------------------------------

intro

verse

Angel, I'm sober

I got off that stuff

Just like you asked me to

Angel, come closer

So the stink of your lies

Sinks into my memory

She said baby, forever, but I don't like to be alone

So don't stay away too long

Baby, forever, well it's Tuesday now

I hear him breathing inside of her

Chorus 1

Let me drink

Let me tie off

I'm really slobbering now

Let it stink

Let it dry up

It's impossible

How?

verse

Angel, forever

Don't you promise me what you cannot deliver

Angel, together

I'll be waiting for you on Fountain and Fairfax

Chorus 2(same lyrics as above)

intro thing then into bridge

Chorus 3

--------------------------------------------------------------------------------

Get this song at:  amazon.com sheetmusicplus.com

Share your thoughts

0 Comments found