Afghan Whigs

Afghan Whigs - Faded guitar tab

faded

--------------------------------------------------------------------------------

song: dulli

tabs: zanzi, paxton

Chords Used:

C#m x46654

D x57775

E x79997

F#m x91119

110

A 577655

Intro chords

A/C# - DMaj9 - E - F#m7 E -

Verse chords

DMaj9 - - E - F#m7 E -

(The DMaj9 is held for the whole bar.)

Riff 1

e-4-4-4-4-4--5--5----------------------

B-5-5-5-5-5--7--7----------------------

G-6-6-6-6-6--7--7----------------------

D-6-6-6-6-6--7--7----------------------

A-4-4-4-4-4--5--5----7/9-7--4--4h5-7-4-

E--------------------------------------

Riff 2

e-------------------------0-2-5-

B-2-0---2-2-0---2-0---2-2-------

G-----2-------2-----2-----------

D-------------------------------

A-------------------------------

E-------------------------------

--------------------------------------------------------------------------------lyrics

--------------------------------------------------------------------------------

Intro Chords

First without riff 1 then with

Verse Chords

You can believe in me, baby

Can I believe in you?

What you don't know

Can hurt you, child

All the things a mind can

Do to you

Verse Chords (with riff 2)

If I go bad

From time to time

Love to love but love is not

My only crime

Bathe the path, shine the light

Better get your ass up on

The mountain, baby

I'll take you up tonight

Chorus (Verse Chords (with riff 1))

Faded

This I feel

Behind the blue clouds

I remain concealed

Lord, lift me out of the night

Come on, look down

And see the mess I'm in tonight

Verse Chords (with riff 2)

You can believe in me, baby

Can I believe in you?

I wish I could remember what

You said, when I said

Enough

You said

Good boy... bad boy... killjoy...

Get your ass over here, boy

And since I know

Myself so well

Don't breathe a word

Don't you ever tell

Chorus (Verse Chords (with riff 1))

Same lyrics as above

Bridge (play an A-chord all through bridge)

Verse Chords (with riff 2)

You can believe in me, baby

Can I believe in you?

That secret's gonna kill you

In the end

It's gonna kill

You

Chorus (Verse Chords (with riff 1))

Same lyrics as above

Outro (verse chords with riff 1 and various variations of riff 2)

--------------------------------------------------------------------------------

Get this song at:  amazon.com sheetmusicplus.com

Share your thoughts

0 Comments found