Afghan Whigs

Afghan Whigs - Double Day guitar tab

double day

--------------------------------------------------------------------------------

song: Dulli/McCollum

tabs: zanzi, hamlett

Intro/verse

Guitar One

Bm Asus G F#

e--------------------------------

B--------------------------------

G--------------------------------

D-----0-----0-----0--------------

A-2-2---0-0-----------------0---- (repeats for a while)

E-------------3-3---2---3-2------

Guitar Two

e--------------------------------------------------------------------|

B-------------------------7---7---8--7-------------------------------|

G-4h6--7----7--6--4----4-------------------7--6--4-------------------|

D-----------------------------------------------------5---4---5--4---|

A--------------------------------------------------------------------|

E--------------------------------------------------------------------|

Riff 1

e--------x-x-------x-x-------x-x----------x-x---------x-x-------x-x-------x-x----------x-x-

B--------x-x-------x-x-------x-x----------x-x---------x-x-------x-x-------x-x----------x-x-

G-4---4--x-x-6-6-6-x-x-7-7-7-x-x-11-11-11-x-x--4---4--x-x-6-6-6-x-x-7-7-7-x-x--6-7-6---x-x-

D--------x-x-------x-x-------x-x----------x-x---------x-x-------x-x-------x-x----------x-x-

A-2---2--x-x-4-4-4-x-x-5-5-5-x-x--9--9--9-x-x--2---2--x-x-4-4-4-x-x-5-5-5-x-x--4-5-4---x-x-

E--------x-x-------x-x-------x-x----------x-x---------x-x-------x-x-------x-x----------x-x-

Chorus

A5 G5 A5 E5

e-------------------------------

B-------------------------------

G-------------------------------

D-7-7---5--5---7-7---2--2-------

A-7-7---5--5---7-7---2--2-------

E-5-5---3--3---5-5---0--0-------

--------------------------------------------------------------------------------

lyrics

--------------------------------------------------------------------------------

Verse

It was a Saturday

I came home early drunk with love

And other things

I must confess I love it all

Verse with riff 1

Pretend that I can hardly wait

To wipe that smile off of your face

Verse

It's only when

On that you can depend

Later that afternoon

My paranoia got the best of me

I knew it would, it always do

I made the call

Verse with riff 1

Pretend that I can hardly wait

To put that smile back on my face

It's coming soon

I'm going to the moon

Chorus (weird drum rhythm)

A5 G5 A5 E5

If you pretend, then I imitate

A5 G5 A5 E5 A5 G5

My friend, come crucify my heart

A5 E5 A5 G5

I wanna get it on

A5 (instead of another E5 it goes into the verse thing)

I wanna get it on

Verse

And in the evening when I sleep

My situation changes nightly

Sometimes it comes, sometimes it goes

Sometimes I feel I'll never know

Verse with riff 1

Tonight's the night I take it home

White knuckle happy and alone

With no one in the room but me

I see I finally see

Chorus as above

Verse And the finish with chorus

Get this song at:  amazon.com sheetmusicplus.com

Share your thoughts

0 Comments found