Afghan Whigs

Afghan Whigs - Debonair guitar tab

debonair

--------------------------------------------------------------------------------

song: dulli

tabs: zanzi, hamlett

intro/bridge:

Guitar:

very funky (a lot of muted strings and this Em-chord)

e---12----

B---12----

G---12----

D--(14)---

A---------

E---------

chorus/outro

e--------------------------------------------

B--------------------------------------------

G-11-11-11-11/12-12-12-12/7-7-7-7/5-5-5-5/4--

D--------------------------------------------

A-9--9--9--9-/10-10-10-10/5-5-5-5/3-3-3-3/2--

E--------------------------------------------

x4

verse:

the timing's pretty loose, just play along

e-----------------------------|

B--1p0---0-0-0-0----0h1-1-1-1-|

G--0-0---0-0-0-0----0-0-0-0-0-|

D--2-2---2-2-2-2----2-2-2-2-2-|

A--2-2---2-2-2-2----2-2-2-2-2-|

E-----------------------------|

start of solo

First an octave riff three times:

e-----------------

B-----------------

G-4-/-7-/9-/-b11--

D-----------------

A-2-/-5-/7-/-b9---

E-----------------

as for the rest... well your guess is as good as mine!

--------------------------------------------------------------------------------lyrics

--------------------------------------------------------------------------------

intro

chorus (no lyrics)

verse

Hear me now and don't forget

I'm not the man my actions would suggest

A little boy, I'm tied to you

I fell apart

That's what I always do

chorus

This ain't about regret

My conscience can't be found

This time I won't repent

Somebody's going down

verse

Feel it now and don't resist

This time the anger's better than the kiss

I must admit when so inclined

I tend to lose it than confront my mind

bridge

'Cause it don't bleed and it don't breathe

It's locked its jaws and now it's swallowing

It's in our heart

It's in our head

It's in our love

Baby it's in our bed

chorus

Tonight I go to hell

For what I've done to you

This ain't about regret

It's when I tell the truth

solo

verse

And once again the monster speaks

Reveals his face and searches for release

A little boy is tied to you

Attracted only 'til it comes unglued

bridge (same lyrics as above)

Chorus/outro

Get this song at:  amazon.com sheetmusicplus.com

Share your thoughts

0 Comments found