Afghan Whigs

Afghan Whigs - Crazy guitar tab

crazy

--------------------------------------------------------------------------------

song: dulli tabs: zanzi, hamlett

intro

(zanzi)

variations on this...

e-----------------------------------------

B-----------------------------------------

G-6---6-3---3-6---1-3---6p3-6p3-----------

D-4---4-4---4-4---4-4---4---4-------------

A-----------------------------------------

E-----------------------------------------

^^^^^^^^

Verse seems to be these pull-offs repeated

Riff's

(hamlett)

riff one

e:---------------------------------------|

B:---------------------------------------|

G:---------------------------------------|

D:--6--8--6--10--11----------------------|

A:-------------------9--8--9--4--4h6--4--|

E:---------------------------------------|

riff two

e:---------------------------|

B:---------------------------|

G:-11-10--8--6---------------|

D:---------------9---8---4---|

A:---------------------------|

E:---------------------------|

solo (w/slide)

(hamlett)

e:--------------------------------------------------------------------------|

B:--------------------------------------------------------------------------|

G:--11--7-/-11--7-/-11--7-/-11--7--11--12--14--12--11--7---4--2---------|

D:--------------------------------------------------------------------3--1--|

A:--------------------------------------------------------------------------|

E:--------------------------------------------------------------------------|

***

e:--------------------------14--14-16-18-19-18-16-14-/-----|

B:---------------------------------------------------------|

G:---------------------------------------------------------|

D:---------------------------------------------------------|

A:-4--6--8--9--8--6--4-------------------------------------|

E:---------------------------------------------------------|

*** this note is too high for my guitar, and the rest is a bit blurry.

to emulate, basicaly run your slide over your pickups, and hold, then run back down

the fret board slowly on your high e string.

--------------------------------------------------------------------------------lyrics

--------------------------------------------------------------------------------

intro/verse + riff 1 x 1 1/2

whatever did happen to your soul?

riff 1

I heard you sold it

To some old boy who lived up town

riff 1

Who could afford it

So what's going to happen to you now

riff 2 x 2

Therapy... The pharmacy

chorus

Crazy

That's what you'd like to believe

But it ain't easy

When yer going crazy

Over the rainbow

riff 1 x 2

verse

"I think your story's jive," she said

riff 1

There ain't nothing wrong with me

If I use it to get me some sympathy

Some ecstacy

riff 2

A memory... I wanna remember me

Chorus

Solo

Crazy... Crazy... Crazy... over me

Outro

Crazy about ya

Crazy without ya

Crazy

Over you

--------------------------------------------------------------------------------

Get this song at:  amazon.com sheetmusicplus.com

Share your thoughts

0 Comments found