Aerzte

Schwanz Ab Chords, Tabs



More from Aerzte

Aerzte Tabs
Aerzte Chords
Aerzte Bass

#-----------------------------PLEASE NOTE-------------------------------------#
#This OLGA file is the author's own work and represents their interpretation  #
#of the song. You may only use this file for private study, scholarship, or   #
#research. Remember to view this file in Courier, or some other monospaced    #
#font. See http://www.olga.net/faq/ for more information.                     #
#-----------------------------------------------------------------------------#



Subject: a/aerzte/schwanz_ab.crd

SCHWANZ AB (die ärzte)
~~~~~~~~~~~~~~~~~~~~~~

C	F   G

C	F	 G
Juppidu schalalala

C				F     G	   C		F	G
Als ich das Mädchen...			   juppidu...
C				F     G	   C		F	G
Da war mir...				   juppidu...
C				F     G	   C		F	G
Sie ist nicht...			   juppidu...
C				F     G	   C		F	G
Und wo...				   juppidu...
     F	         Am		      F	           G
Ich ging...	sagte...	ich such...	glaube mir
	C	  F		G
...Schwanz ab...runter mit...

Live- Version: während des gesprochenen Parts (ihr Mädchen!...)

 








C			   F	     G	      C alternativ
E------------------|-------------------||---------------------------
B------------------|-------------------||---------------------------
G------------------|-------------------||-5-5-5-5-5-5-5-5-----------
D--2-2-2-2-2-2-2-2-|-3-3-3-3s5-5-5-5-5-||-5-5-5-5-5-5-5-5-----------
A--3-3-3-3-3-3-3-3-|-3-3-3-3s5-5-5-5-5-||-3-3-3-3-3-3-3-3-----------
E--x-x-x-x-x-x-x-x-|-1-1-1-1s3-3-3-3-3-||---------------------------

1 & 2 & 3 & 4 &   1 & 2 &   3 & 4 &

Variation:

C			   F	     G
E------------------|---------------3---||--
B------------------|-----1---------3---||--
G------------------|-----2---------4---||--
D--2-2-2-2-2-2-2-2-|-3-3---3s5-5-5-----||--
A--3-3-3-3-3-3-3-3-|-3-3---3s5-5-5-----||--
E--x-x-x-x-x-x-x-x-|-1-1---1s3-3-3-----||--

1 & 2 & 3 & 4 &   1 & 2 &   3 & 4 &

Fragen, Korrekturen??? -> c_nowack@web.de

 








Get this song at amazon.com      Ebay     Ringtones Ringtones  


Learn to play: Songwriting, Piano, Harmonica, Guitar

Related Aerzte Chords

Schunder-song chords
Westerland chords
Langweilig chords
Schrie Nach Liebe chords
Baby chords
Schwanz Ab chords
Baby (Version 2) chords
Drei-tage-bart chords
Red Mit Mir chords
Geschwisterliebe chords
Ich Ess Blumen chords
Grotesksong chords
Ein Schwein Namens Mann chords
Maenner Sind Schweine chords


Guitar Tabs









All tabs are property and copyright of their owners. All tabs provided for educational purposes only. Privacy Policy, DMCA