Aertze

Hurra Tabs



More from Aertze

Aertze Tabs

Hurra
=====
(M/T: Urlaub)


This is my own corrected version of this pretty nice Song. I think I had tuned my guitar in a wrong way. If you want more DIE-ÄRZTE-TABS, look for www.debil-tabs.de.vu!! Yours, Benjamin Marschner or Leerebirne@web.de

Intro:
A D (2x)Keyboard
A D (2x)Guitar
A-G-D-G (2x)Guitar
Pre-Intro-Solo:
1:-------------
2:-------------
3:--7-6--------
4:------9-7---
5:-------------
6:-------------

Intro-Solo:
A E D A E D
1:-----------------------------------------------------------------------
2:-----------------------------------------------------------------------
3:---------6---------------7-6------------------6---------------7-6------
4:-7-7--9----9--7------7-7-----9--7-----7-7--9----9--7------7-7-----9--7-
5:----------------9-----------------9------------------9-----------------
6:-----------------------------------------------------------------------

A E D A E D
1:-----------------------------------------------------------------------
2:-----------------------------------------------------------------------
3:---------6---------------7-6------------------6---------------7-6------
4:-7-7--9----9-7------7-7------9-7-----7-7--9-----9-7------7-7-----9-7--
5:----------------9-----------------9------------------9-----------------
6:-----------------------------------------------------------------------

Gsus4-G

1.Verse:
f# D A
Weißt du noch, wie's früher war - früher war alles schlecht
f# D A
der Himmel grau, die Menschen mies - die Welt war furchtbar ungerecht
h D
doch dann, dann kam die Wende - und unser Leid war zu Ende

Chorus:
A E f# D
Hipp Hipp Hurra, alles ist super, alles ist wunderbar
A E f# D
Hipp Hipp Hurra, alles ist besser, als es damals war
Gsus4-G

2.Verse:
f# D A
Früher waren wir alle traurig - wir weinten jeden Tag
f# D A
es nieselte, wir waren oft krank - jetzt ist alles total stark
D A
jetzt lachen immer alle, und reißen ständig Witze
D E
wir sind nur noch am Baden gehen - wejen die Hitze
h D
und ich find es wirklich scharf - daß ich das noch erleben darf

Chorus:
A E f# D
Hipp Hipp Hurra, alles ist super, alles ist wunderbar
A E f# D
Hipp Hipp Hurra, alles ist besser, als es gestern war
h A D E
Alle sind happy, alle sind glücklich, alle sind froh
h D E A
und überall wo man hinguckt, Liebe und Frieden und so


Pre-Solo:
A D A D
1:-----------------------------------------------------------------------
2:-----------------------------------------------------------------------
3:---------6---------------7-6------------------6---------------7-6------
4:-7-7--9----9--7------7-7-----9--7-----7-7--9----9--7------7-7-----9-7--
5:----------------9----------------9------------------9------------------
6:-----------------------------------------------------------------------

Solo:

A E f# D A E
1:------------------------------------------7-9---9--9--9---10-10--9---
2:-10-10-10--9--7-7------7----------7-10-10----------------------------
3:-------------------9-----9--9--9-------------------------------------
4:---------------------------------------------------------------------
5:---------------------------------------------------------------------
6:---------------------------------------------------------------------
c# D E
1:-7-----10-9--7-----10-9--7-------12-12-12-12-12-12-12-12-14-14-14-14-
2:---------------------------10----------------------------------------
3:---9-----------9-----------------------------------------------------
4:-------------------------------9-------------------------------------
5:---------------------------------------------------------------------
6:---------------------------------------------------------------------

1:-14-14-14-14-16-16-16-16-16-16-16/5----------------------------------
2:---------------------------------------------------------------------
3:---------------------------------------------------------------------
4:---------------------------------------------------------------------
5:---------------------------------------------------------------------
6:---------------------------------------------------------------------

3.Verse(only Bass plays):
A E f# D
Gestern ging es allen dreckig - heute geht es steil bergauf
A E f# D
Jeder hat sechs Richtige - alle sind total gut drauf

(Guitar starts)
A E f# D
Europa, Asien, Afrika - Australien und Amerika
A E f# D
Friede, Freude, Eierkuchen - alle singen: ja, ja, ja

Chorus (only voices):
Hipp Hipp Hurra, alles ist super, alles ist wunderbar
Hipp Hipp Hurra, alles ist besser, als es gestern war

Gsus4-G

Outro-Chorus (w/guitars):
A E f# D
Hipp Hipp Hurra, alles ist super, alles ist wunderbar
A E f# D
Hipp Hipp Hurra, alles ist besser, als es damals war

h c# D E
Alle sind Freunde, alle sind happy, alle sind froh
h D E
und überall wo man hinguckt, Liebe und Frieden
h D E
und überall wo man hinguckt, Liebe und Frieden
h D E A
und überall wo man hinguckt, Liebe und Frieden und so

A D (2x) Keyboard
Get this song at amazon.com      Ebay     Ringtones Ringtones  


Learn to play: Songwriting, Piano, Harmonica, Guitar

Related Aertze Tabs

Blumen tabs
Der Ritt Auf Dem Schmetterling tabs
Die Banane tabs
Elke tabs
Gwendoline tabs
Hurra tabs
Mach Die Augen Zu tabs
Regierung tabs
Red Mit Mir tabs
Schrei Nach Liebe tabs
Super Drei tabs
Wie Es Geht tabs
Schunder-song tabs
Westerland tabs
Zu Spaet tabs


Guitar Tabs









All tabs are property and copyright of their owners. All tabs provided for educational purposes only. Privacy Policy, DMCA