Aerosmith

Don Wanna Miss A Thing Tabs



More from Aerosmith

Aerosmith Tabs
Aerosmith Chords
Aerosmith Bass
Aerosmith Lyrics



Artist – Aerosmith
Title – Don’t wanna miss a thing (Armageddon soundtrack)
Tabbed By – SmithyWastedYouth
Tuning - Standard

Verse 1:
e ---------------------------------------------------------------
B -----0-----0-----0-----0-----0-----0-----0-----0-----0-----0---
G ---2-----2-----2-----2-----2-----2-----2-----2-----2-----2-----
D -4-----4-----2-----2-----4-----4-----4-----4-----5-----5-------
A ---------------------------------------------------------------
E --------------------------------------------------------------- x2

e -------------------------------------|-------------------------
B -----0-----0-----0-----0-----0-----0-|-----0-----0-----0-----0-
G ---2-----2-----2-----2-----2-----2---|---2-----2-----2-----2---
D -4-----4-----2-----2-----2-----2-----|-4-----4-----5-----5-----
A -------------------------------------|-------------------------
E -------------------------------------|-------------------------

Verse 2: (verse 1 except with this change at the end instead of as above)
e -------------------------------------------------------------------------
B -----0-----0-----0-----0-----0-----0-----0-----0-----0-----0-----0-----0-
G ---2-----2-----2-----2-----2-----2-----2-----2-----2-----2-----2-----2---
D -4-----4-----2-----2-----4-----4-----4-----4-----2-----2-----5-----5-----
A -------------------------------------------------------------------------
E -------------------------------------------------------------------------

Verse 1:
I could stay awake just to hear you breathing
Watch you smile while you are sleeping
While you're far away and dreaming
I could spend my life in this sweet surrender
I could stay lost in this moment - forever ...

Asus
e -------------------------------------------0------------------------------
B -------------------------------------------3------------------------------
G -------------------------------------------2------------------------------
D -------------------------------------------2------------------------------
A -------------------------------------------0------------------------------
E -------------------------------------------x------------------------------
Every moment spent with you is a moment I treasure

Dsus2 Asus Em7
e ---0-----------------0--------------0--------------------------------------
B ---3-----------------3--------------3--------------------------------------
G ---2-----------------2--------------0--------------------------------------
D ---0-----------------2--------------2--------------------------------------
A ---0-----------------0--------------2--------------------------------------
E ---x-----------------x--------------0--------------------------------------
I don't want to close my eyes, i don't want to fall asleep

G Asus
e ------------3----------------------------------0---------------------------
B ------------3----------------------------------3---------------------------
G ------------0----------------------------------2---------------------------
D ------------0----------------------------------2---------------------------
A ------------2----------------------------------0---------------------------
E ------------3----------------------------------x---------------------------
'Cause I'd miss you baby, and I don't want to miss a thing

Dsus2 Asus Em7
e --0-------------------0-------------0--------------------------------------
B --3-------------------3-------------3--------------------------------------
G --2-------------------2-------------0--------------------------------------
D --0-------------------2-------------2--------------------------------------
A --0-------------------0-------------2--------------------------------------
E --x-------------------x-------------0--------------------------------------
'Cause even when I dream of you, The sweetest dream would never do

G Asus Dsus2 Asus Em7
e -----------3---------------------------------0------------0-----0----0-----
B -----------3---------------------------------3------------3-----3----3-----
G -----------0---------------------------------2------------2-----2----0-----
D -----------0---------------------------------2------------0-----2----2-----
A -----------2---------------------------------0------------0-----0----2-----
E -----------3---------------------------------x------------x-----x----0-----
I'd still miss you baby and i don't want to miss a thing

Verse 2:
Lying close to you feeling your heart beating
And I'm wondering what you're dreaming
Wondering if it's me you're seeing
Then I kiss your eyes and thank God we're together
I just want to stay with you ...

Asus A
e -------------------0--------0----------------------------------------------
B -------------------3--------2----------------------------------------------
G -------------------2--------2----------------------------------------------
D -------------------2--------2----------------------------------------------
A -------------------0--------0----------------------------------------------
E -------------------x--------x----------------------------------------------
In this moment forever, forever and ever

Dsus2 Asus Em7
e ---0-----------------0--------------0--------------------------------------
B ---3-----------------3--------------3--------------------------------------
G ---2-----------------2--------------0--------------------------------------
D ---0-----------------2--------------2--------------------------------------
A ---0-----------------0--------------2--------------------------------------
E ---x-----------------x--------------0--------------------------------------
I don't want to close my eyes, i don't want to fall asleep

G Asus
e ------------3----------------------------------0---------------------------
B ------------3----------------------------------3---------------------------
G ------------0----------------------------------2---------------------------
D ------------0----------------------------------2---------------------------
A ------------2----------------------------------0---------------------------
E ------------3----------------------------------x---------------------------
'Cause I'd miss you baby, and I don't want to miss a thing

Dsus2 Asus Em7
e --0-------------------0-------------0--------------------------------------
B --3-------------------3-------------3--------------------------------------
G --2-------------------2-------------0--------------------------------------
D --0-------------------2-------------2--------------------------------------
A --0-------------------0-------------2--------------------------------------
E --x-------------------x-------------0--------------------------------------
'Cause even when I dream of you, The sweetest dream would never do

G Asus D
e -----------3---------------------------------0------------2----------------
B -----------3---------------------------------3------------3----------------
G -----------0---------------------------------2------------2----------------
D -----------0---------------------------------2------------0----------------
A -----------2---------------------------------0------------0----------------
E -----------3---------------------------------x------------x----------------
I'd still miss you baby and i don't want to miss a thing

C G
e --------------------0-----------------------------3------------------------
B --------------------1-----------------------------3------------------------
G --------------------0-----------------------------0------------------------
D --------------------2-----------------------------0------------------------
A --------------------3-----------------------------2------------------------
E --------------------x-----------------------------3------------------------
And i don't wanna miss one smile, i don't wanna miss one kiss

A# F
e -----------------1--------------------------------1------------------------
B -----------------3--------------------------------1------------------------
G -----------------3--------------------------------2------------------------
D -----------------3--------------------------------3------------------------
A -----------------1--------------------------------3------------------------
E -----------------x--------------------------------1------------------------
I just want to be with you right here with you, just like this

C G
e --------------------0------------------------------------3-----------------
B --------------------1------------------------------------3-----------------
G --------------------0------------------------------------0-----------------
D --------------------2------------------------------------0-----------------
A --------------------3------------------------------------2-----------------
E --------------------x------------------------------------3-----------------
And I just want to hold you close, I feel your heart so close to mine

Dm E Asus A
e --------1------------------------------------0-------------0-----------0-
B --------2------------------------------------0-------------3-----------2-
G --------3------------------------------------1-------------2-----------2-
D --------0------------------------------------2-------------2-----------2-
A --------x------------------------------------2-------------0-----------0-
E --------x------------------------------------x-------------x-----------x-
And we'll stay here in this moment for all the rest of time, yeah, yeah, Yeah

Dsus2 Asus Em7
e ---0-----------------0--------------0--------------------------------------
B ---3-----------------3--------------3--------------------------------------
G ---2-----------------2--------------0--------------------------------------
D ---0-----------------2--------------2--------------------------------------
A ---0-----------------0--------------2--------------------------------------
E ---x-----------------x--------------0--------------------------------------
I don't want to close my eyes, i don't want to fall asleep

G Asus
e ------------3----------------------------------0---------------------------
B ------------3----------------------------------3---------------------------
G ------------0----------------------------------2---------------------------
D ------------0----------------------------------2---------------------------
A ------------2----------------------------------0---------------------------
E ------------3----------------------------------x---------------------------
'Cause I'd miss you baby, and I don't want to miss a thing

Dsus2 Asus Em7
e --0-------------------0-------------0--------------------------------------
B --3-------------------3-------------3--------------------------------------
G --2-------------------2-------------0--------------------------------------
D --0-------------------2-------------2--------------------------------------
A --0-------------------0-------------2--------------------------------------
E --x-------------------x-------------0--------------------------------------
'Cause even when I dream of you, The sweetest dream would never do

G Asus Dsus2
e -----------3---------------------------------0------------0----------------
B -----------3---------------------------------3------------3----------------
G -----------0---------------------------------2------------2----------------
D -----------0---------------------------------2------------0----------------
A -----------2---------------------------------0------------0----------------
E -----------3---------------------------------x------------x----------------
I'd still miss you baby and i don't want to miss a thing

Dsus2 Asus Em7
e ---0-----------------0--------------0--------------------------------------
B ---3-----------------3--------------3--------------------------------------
G ---2-----------------2--------------0--------------------------------------
D ---0-----------------2--------------2--------------------------------------
A ---0-----------------0--------------2--------------------------------------
E ---x-----------------x--------------0--------------------------------------
I don't want to close my eyes, i don't want to fall asleep

G Asus
e ------------3----------------------------------0---------------------------
B ------------3----------------------------------3---------------------------
G ------------0----------------------------------2---------------------------
D ------------0----------------------------------2---------------------------
A ------------2----------------------------------0---------------------------
E ------------3----------------------------------x---------------------------
'Cause I'd miss you baby, and I don't want to miss a thing

Bm7 C#m7 Em7
e --0-------------------0-------------0--------------------------------------
B --3-------------------5-------------3--------------------------------------
G --4-------------------6-------------0--------------------------------------
D --4-------------------6-------------2--------------------------------------
A --2-------------------4-------------2--------------------------------------
E --x-------------------x-------------0--------------------------------------
'Cause even when I dream of you, The sweetest dream would never do

G Asus
e -----------3---------------------------------0----------------------------
B -----------3---------------------------------3----------------------------
G -----------0---------------------------------2----------------------------
D -----------0---------------------------------2----------------------------
A -----------2---------------------------------0----------------------------
E -----------3---------------------------------x----------------------------
I'd still miss you baby and i don't want to miss a thing

Dsus2 Asus Em7 G
e ---0-----------------0--------------0-------------------------3------------
B ---3-----------------3--------------3-------------------------3------------
G ---2-----------------2--------------0-------------------------0------------
D ---0-----------------2--------------2-------------------------0------------
A ---0-----------------0--------------2-------------------------2------------
E ---x-----------------x--------------0-------------------------3------------
I don't want to close my eyes, i don't want to fall asleep, yeah

Asus
e ------------------0-----------------------------------------------------
B ------------------3-----------------------------------------------------
G ------------------2-----------------------------------------------------
D ------------------2-----------------------------------------------------
A ------------------0-----------------------------------------------------
E ------------------x-----------------------------------------------------
I don't wanna miss a thing

Dsus2 Asus Em7 G Asus
e ---0----------0----------0----------3----------0---------------------------
B ---3----------3----------3----------3----------3---------------------------
G ---2----------2----------0----------0----------2---------------------------
D ---0----------2----------2----------0----------2---------to fade-----------
A ---0----------0----------2----------2----------0---------------------------
E ---x----------x----------0----------3----------x---------------------------

And that's that! enjoy...


Get this song at amazon.com      Ebay     Ringtones Ringtones  


Learn to play: Songwriting, Piano, Harmonica, Guitar
More Aerosmith lyrics available at Muzikum

Related Aerosmith Tabs

Critical Mass tabs
Dude Looks Like A Lady (110%) tabs
What It Takes tabs
Hop, The tabs
Dude Looks Like A Lady Solo tabs
Movin\' Out tabs
The Grind tabs
Spaced tabs
Sweet Emotion Power tabs
Sick As A Dog tabs
Subway tabs
The Hop tabs
Sweet Emotion Intro tabs
Eat The Rich tabs
Jailbait tabs
Round & Round tabs
Road Runner tabs
Reefer Head Woman tabs
Back In The Saddle Intro tabs
Full Circle tabs


Guitar Tabs









All tabs are property and copyright of their owners. All tabs provided for educational purposes only. Privacy Policy, DMCA