Adams Bryan

Cloud Number 9 Tabs



More from Adams Bryan

Adams Bryan Tabs
Adams Bryan Chords
Adams Bryan Bass

Figure Dx
E-----2-----3-----2-------2------2-----3----2------2-------------
B--3-----3------------3-------3-----3-----------3----------------
G----------------------------------------------------------------
D----------------------------------------------------------------
A----------------------------------------------------------------
E----------------------------------------------------------------

Fill 1
E--------------0---
B--2----3----------
G------------------
D------------------
A------------------
E------------------

Intro [Dx]

[D]clue number one was when you knocked on my door
[Em]clue number two was the look that you wore
n' [A]that's when i knew, it was a pretty good sign
that [G]something was wrong up on [Dx]cloud number nine

well it's a [A]long way up and we won't come down to[Dx]night
well it may [A]be wrong but baby it sure feels right[G]

Fill 1

and the [D]moon is out and the stars are bright
and what[Em]ever comes s'gonna be alright
cause to[A]night you will be mine[G] - up on cloud[D] number nine
and there ain't [D]no place that i'd rather be
and we [Em]can't go back but you're here with me
yeah, the wea[A]ther is really fine[G] - up on cloud[D] number nine

Fill 1

now [D]he hurt you and you hurt me
and [Em]that wasn't the way it was supposed to be
so [A]baby tonight let's leave the world behind
and [G]spend some time up on [Dx]cloud number nine

well it's a [A]long way up and we won't come down to[Dx]night
well it may [A]be wrong but baby it sure feels right[G]

and the [D]moon is out and the stars are bright
and what[Em]ever comes s'gonna be alright
cause to[A]night you will be mine[G] - up on cloud[D] number nine
and there ain't [D]no place that i'd rather be
and we [Em]can't go back but you're here with me
yeah, the wea[A]ther is really fine[G] - up on cloud[D] number nine

Solo
D Bm
---------------------------9---10---9-------7--7---------------
----------10---------------------------------------------------
-9---11--------------------------------------------------------
---------------------------------------------------------------
---------------------------------------------------------------
---------------------------------------------------------------

Ab
-9---10---9------7--6--------------------10---6----------------
---------------------------------------------------------------
--------------------------------------------------7------------
---------------------------------------------------------------
---------------------------------------------------------------
---------------------------------------------------------------


[A]well we won't come down tonight
[A]ya we won't come down tonight
[A]no we won't come down tonight

and the [D]moon is out and the stars are bright
and what[Em]ever comes s'gonna be alright
cause to[A]night you will be mine[G] - up on cloud[D] number nine
and there ain't [D]no place that i'd rather be
and we [Em]can't go back but you're here with me
yeah, the wea[A]ther is really fine[G] - up on cloud[D] number nine

yeah, we can [A]watch the world go by [G]- up on cloud[D] number nine

[G] [A] [D]


Send corrections to wingsab@hotmail.com
Get this song at amazon.com      Ebay     Ringtones Ringtones  


Learn to play: Songwriting, Piano, Harmonica, Guitar

Related Adams Bryan Tabs

Hearts On Fire tabs
Im Coming Back To You tabs
The Only Thing That Looks Good On Me Is You tabs
Rebel tabs
Summer Of 69 Unplugged tabs
Everything I Do tabs
Take Me Back tabs
Lo Hago Por Ti tabs
House Arrest tabs
Ill Always Be Right There tabs
Let Him Know tabs
Everything I Do I Do It For You tabs
Evrything I Do tabs
Victim Of Love tabs
Fits Ya Good tabs
Every Thing I Do2 tabs
I Dont Wanna Live Forever tabs
Heaven tabs
Fits Ya Good2 tabs
Tonight I Died & Gone To Heaven tabs


Guitar Tabs









All tabs are property and copyright of their owners. All tabs provided for educational purposes only. Privacy Policy, DMCA