Across Five Aprils

A Year From Now Tabs



More from Across Five Aprils

Across Five Aprils Tabs
Across Five Aprils Lyrics

tabs-database.com[http://www.tabs-database.com.com/]


Song Name:A Year From Now

Band Name:Across Five Aprils







guitar 1

e-----------------------------------------------------------------|

b-----------------------------------------------------------------|

g----------0-------------0---------0--------0--------0--------0---|

d-----9-----9-------9-----9-----7---7----7---7----9---9----9---9--|

a-1010-1010--10-1010-1010--10-99-99--9-99-99--9-77-77--7-77-77--7-|

e-----------------------------------------------------------------|



e----------------------------|

b----------------------------|

g------0--------0------------|

d---7---7----7---7-----------|

a-55-55--5-55-55-------------|

e----------------------------| repeat all this verse X4 till it goes to the chord bit

where i think both guitar plays the same thing or one stops.



e----------------|

b----------------|

g-777-777-777777-|

d-777-777-777777-|

a-555-444-555555-|

e----------------| play this X4 this counts for the beat kinda well i tried you can

figure out the rhythm.





e--------------------------------------------------------------------------|

b--------------------------------------------------------------------------|

g--------------------------------------------------------------------------|

d--------------------------------------------------------------------------|

a-1010-1210101210121010-121010121012-9-9-12-9-9-12-9-12-9-9-12-9-9-12-9-12-|

e--------------------------------------------------------------------------|



e------------------------------------------------------------------------|

b-----11--11--11----11--11--11----11--11--11----11--11--11----11--11--11-|

g-------12--12--------12--12--------12--12--------12--12--------12--12---|

d------------------------------------------------------------------------|

a-1010----------1010----------1010----------1010----------1010-----------|

e------------------------------------------------------------------------|





do all that compleacated thing twice





e------------|

b------------|

g------------|

d-12---------|

a-10-9-10-12-|

e------------| do this X4



e---------------------------------|

b---------------------------------|

g----------12121212-12121212-7777-|

d-12121212----------12121212-7777-|

a-10101010-10101010-9-9-9-9--5555-|

e---------------------------------| do this X2





e------------|

b------------|

g------------|

d-12---------|

a-10-9-10-12-|

e------------| do this X3 then there on more but finishes like this



e--------------------|

b--------------------|

g--------------------|

d-12------------0----|

a-10-9-10-12-10------|

e--------------------|





it rate it please-
Added by tabs-database.com and our distinguished partners
Get this song at amazon.com      Ebay     Ringtones Ringtones  


Learn to play: Songwriting, Piano, Harmonica, Guitar

Related Across Five Aprils Tabs

Car Wrecks And Plane Crashes tabs
Blue Eyed Suicide tabs
A Year From Now tabs
Through The Pain tabs
Thoughtless Apologies tabs


Guitar Tabs









All tabs are property and copyright of their owners. All tabs provided for educational purposes only. Privacy Policy, DMCA