Ace of Base

Ace of Base - Lucky Love guitar chord

"Lucky Love" (acoustic version)

Artist: Ace of Base

Album: The Bridge

---------------------------------------------------------------

Update: **Special thanks to Mike Nelson

1/9/98 who pointed out the Dm** Now it sounds really good!**

---------------------------------------------------------------

Well, here it is! One of the few Ace of Base songs (acoustic) I've heard.

A fun, happy, and easy song to play. My transcription isn't perfect, but

still sounds good. I'm not 100% sure about the transition from the chorus

to the bridge. If you can do better (highly likely) let me know. send

comments to Robert, robert@zdesigns.com. Enjoy!

The basic chord progression is F,C,Dm,Bb all throughout the verses and

chorus. Listen to the song for the strumming pattern. It isn't too

difficult.

Chords:

F xx33211 Bb x13331

C x32010 A x02220

Dm x00231 G 320033

[INTRO]

F C Dm Bb F C Dm

Life is a paradise

Bb F

Woah oh, woah oh yeah!

C Dm Bb F C

Lucky love belongs in teenage heaven I know, I know

Dm Bb F

'Cause I've been there with you tonight

C Dm Bb F C

Lucky love belongs in teenage heaven I know, I know

Dm A G

'Cause I've been there with you tonight

[BRIDGE]

G A F C

I believe life could be paradise once again

G A F

And the love we thought we lost is sleeping within

C F

Close your eyes, it's something for you

[CHORUS]

F C Dm Bb F C

Lucky love belongs in teenage heaven I know, I know

Dm Bb F

'Cause I've been there with you tonight

C Dm Bb F C

Lucky love belongs in teenage heaven I know, I know

Dm A G

I'm a prisoner of hope I know

[BRIDGE]

G A F C

We are young and we are old we're fallen like leaves

G A F

And your heart's so full of soul it makes me believe

C F

Once again, it's something for you

[CHORUS]

F C Dm Bb F C

Lucky love belongs in teenage heaven I know, I know

Dm Bb F

'Cause I've been there with you tonight

C Dm Bb F C

Lucky love belongs in teenage heaven I know, I know

Dm A

'Cause I've been there with you tonight

[RIFF]

1:41-1:50

Dm

e-|-----5--------5---|-----5-------5---|-----3---------3----1-|

B-|---6---6----6---6-|---6---6---6---6-|---6---6-----6---6--3-|

G-|-7--------6-------|-5-------4-------|-3-------3-3--------2-|

D-|------------------|-----------------|--------------------0-|

A-|------------------|-----------------|--------------------x-|

E-|------------------|-----------------|--------------------x-|

1:51-2:00 (I'm not to sure

about this part?)

e-|-----5--------5---|-----5-------5---|-----3---------3------|--1-3-1-5-|

B-|---6---6----6---6-|---6---6---6---6-|---6---6-----6---6----|----------|

G-|-7--------6-------|-5-------4-------|-3-------3-3-------3--|-2--------|

D-|------------------|-----------------|----------------------|----------|

A-|------------------|-----------------|----------------------|----------|

E-|------------------|-----------------|----------------------|----------|

The bridge over time was what she need to see the light, to see

the light

Whoo yeah!

F C Dm Bb F C Dm Bb

Lucky love, Lucky love, Lucky love belongs in teenage heaven

F C Dm Bb F C Dm Bb

Lucky love, Lucky love, Lucky love belongs in teenage heaven

F

woah oh, woah oh yeah!

[CHORUS]

F C Dm Bb F C

Lucky love belongs in teenage heaven I know, I know

Dm Bb F

'Cause I've been there with you tonight

C Dm Bb F C

Lucky love belongs in teenage heaven I know, I know

Dm A G

I'm a prisoner of hope I know

[OUTRO]

2:39-END

Dm

e-|-----5--------5---|-----5-------5---|-----3---------3----1-|

B-|---6---6----6---6-|---6---6---6---6-|---6---6-----6---6--3-|

G-|-7--------6-------|-5-------4-------|-3-------3-3--------2-|

D-|------------------|-----------------|--------------------0-|

A-|------------------|-----------------|--------------------x-|

E-|------------------|-----------------|--------------------x-|

Song ends on Dm

Get this song at:  amazon.com sheetmusicplus.com

Share your thoughts

0 Comments found