Ac Dc

Ac Dc - You Shook Me All Night Long guitar tab

AC/DC

You shook me all night long

Standard Tuning

This is one of my favorite AC/DC songs of all time

it\\'s pretty simple, it\\'s only about three chords,

and the solo is pretty easy, ROCK ON!

Intro

e------3-----------------5-- ----------3--3--------3---3-------- --2----------------2--

B------3-----------------3-- ----------3--3--------3---3-------- --3----------------3--

G------0-----------------0-- ----------0--0--------0---0-------- --2----------------2--

D------0--0--0--0--0-----0-- ---0-------------0--------------0-- --0------3---------0--

A--------------------------- ----------------------------------- ----------------------

E--------------------------- ----------------------------------- ----------------------

e------------------------- ----3-----------------5-- --------3--3----------3--3-----------2--

B------------3------------ ----3-----------------3-- --------3--3----------3--3-----------3--

G------------------------- ----0-----------------0-- --------0--0----------0--0-----------3--

D---3h4---------3---0----- ----0---0--0--0--0----0-- ---0-----------0---------------------0--

A------------------------- ------------------------- ----------------------------------------

E------------------------- ------------------------- ----------------------------------------

Verse

e--3----3--3--3---3--3- --3--3--3--3--2-- --2--2--3---2--3---------------

B--3----3--3--3---3--3- --3--3--3--3--3-- --3--3--3---3--3---------------

G--0----0--0--0---0--0- --0--0--0--0--2-- --2--2--0---2--0---------------

D--0----x--x--0---x--0- --0--0--x--0--0-- --0--0--0---0--0---------------

A--x----3--3--x---3--x- --x--x--3--x----- --------x------x---------------

E--3----------3----- 3- --3--3-----3----- --------3------3---------------

Reapeat 4 times

pre Chorus

e---3----------3----- -----3-----3-----3-----3-----2--- ----2---2----2---2----3------

B---3----------3----- -----3-----3-----3-----3-----3--- ----3---3----3---3----3------

G---0----------0----- -----0-----0-----0-----0-----2--- ----2---2----2---2----2------

D---0----------x----- -----x-----0-----x-----0-----0--- ---=0---0----0---0----0------

A---x----------3----- -----3-----x-----3-----x--------- -----------------------------

E---3---------------- -----------3-----------3--------- -----------------------------

Chorus

e--------3---------------------3-------------3-----

B--------3---------------------3-------------3-----

G--------3-----------------0---0--------0----0-----

D--------0-----------------------------------------

A--------x--------0--2--3---------2--3-------------

E--------3-----------------------------------------

repeat a couple of times then back to the verse

Verse

e--3----3--3--3---3--3-- -3--3--3--3--2-- -2--2--3---2--3--------

B--3----3--3--3---3--3-- -3--3--3--3--3-- -3--3--3---3--3--------

G--0----0--0--0---0--0-- -0--0--0--0--2-- -2--2--0---2--0--------

D--0----x--x--0---x--0-- -0--0--x--0--0-- -0--0--0---0--0--------

A--x----3--3--x---3--x-- -x--x--3--x----- -------x------x--------

E--3----------3----- 3-- -3--3-----3----- -------3------3--------

repeat 4 times

pre Chorus

e---3----------3----- -----3---- 3-----3-----3-----2--- ----2---2----2---2----3-------

B---3----------3----- -----3-----3-----3-----3-----3--- ----3---3----3---3----3-------

G---0----------0----- -----0-----0---- 0-----0-----2--- ----2---2----2---2----2-------

D---0----------x----- -----x-----0-----x-----0-----0--- ----0---0----0---0----0-------

A---x----------3----- -----3-----x-----3-----x--------- ------------------------------

E---3---------------- -----------3-----------3--------- ------------------------------

Chorus

e--------3--------------------3-------------3-----

B--------3--------------------3-------------3-----

G--------3----------------0---0--------0----0-----

D--------0----------------------------------------

A--------x--------0--2--3--------2--3-------------

E--------3----------------------------------------

solo (after the second Chorus)

e------------3-------------------------------------------------------------------------

B---------------3--6--------------------------------------------------------3----------

G---5b7--------------5b7--r5--3---------------------------------------------3----------

D--------------------------------------5-----5-----5---3------------------------5------

A-----------------------------------------5---------------5---3--------------------5---

E-------------------------------------------------------------------6---3--------------

e-------------------------------------------------------------10----------------------------

B----------------6----6-----------8---8-------8---10b12----------10----8--11b13--10b12------

G--------3/7--------------7h9-------------9-------------------------------------------------

D----5--------------------------------------------------------------------------------------

A-------------------------------------------------------------------------------------------

E-------------------------------------------------------------------------------------------

e---------------------------15----------------------------------------------------------

B---8-----8-------18b20-------15---18-----------------------17-------------18-----------

G------9-------9---------------------------17b19----15------17-----------------17b19----

D--------------------------------------------------------17--------15b17----------------

A---------------------------------------------------------------------------------------

E---------------------------------------------------------------------------------------

e---------------------------------------------------------18b20----17b19---17---18p17--15--

B--18---------------------17---15--17--15----15--------------------------------------------

G------19r17----15--------17---15--17--15--------------------------------------------------

D----------------------17------------------------------------------------------------------

A------------------------------------------------------------------------------------------

E------------------------------------------------------------------------------------------

e---17------15-------15------------------------------------15----15--15--17--18p17-15v-----

B------17------18b20----18-----------------------------17----17----------------------------

G------------------------------17--19p17---15--17b19---------------------------------------

D------------------------------------------------------------------------------------------

A------------------------------------------------------------------------------------------

E------------------------------------------------------------------------------------------

rythem during solo

e--------------------------------------------------------------------------

B--------------------------------------------------------------------------

G--------------------------------------------------------------------------

D---5---5----5----5------5-----5------5---5---5----5------5----------------

A---5---0----2----3------2-----5------0---2---3----2------5----------------

E---3-----------------------------------------------------3----------------

after the solo play the chorus a couple of times

Chorus

e--------3--------------------3-------------3-----

B--------3--------------------3-------------3-----

G--------3---------------0----0--------0----0-----

D--------0----------------------------------------

A--------x------0--2--3---------2--3--------------

E--------3----------------------------------------

repeat

then it goes into the outro

e--3-3--3---3--2-- --2--2---3---3--3-- --3--3--3--3---3---2--

B--3-3--3---3--3-- --3--3---3---3--3-- -3--3--3--3---3---3--

G--0-0--x---0--2-- --2--2---0---0--0-- --0--0--0--0---0---2--

D-------2---0--0-- --0--0---0---0--0-- --0--------x---0---0--

A-----------0----- ---------0---2--3-- --3--------2---0------

E----------------- ------------------- ----------------------

e--2--2--2--2--2--2--2--

B--3--3--3--3--3--3--3--

G--2--2--2--2--2--2--2--

D--0--0--0--0--0--0--0--

A-----------------------

E-----------------------

play this part three times

Get this song at:  amazon.com sheetmusicplus.com

Share your thoughts

0 Comments found