Ac Dc

Ac Dc - You Shook Me All Night Long (guitar Intro) bass tab

Sometimes you just want to jam out to You Shook Me, but you\\'re

on your bass and can\\'t play the intro. Well, now you can.

G|-12~-|-14-12-12----12-11--------|-----------------------------|

D|-12~-|-12-12----12-------12--12-|-----12---------12-----12----|

A|-----|-----------------------12-|-----12---------12-----12----|

E|-----|-----------------------10-|-13--10--13/14--10--13-10-13-|

G|-12~-|-14-12-12----12-11--------|

D|-12~-|-12-12----12-------12--12-|

A|-----|-----------------------12-|

E|-----|-----------------------10-|

Get this song at:  amazon.com sheetmusicplus.com

Share your thoughts

0 Comments found