Ac Dc

Ac Dc - You Shook Me All Night Long (correct) bass tab

Artist: AC/DC

Song: You Shook Me All Night Long

Verse 1

|------------------------------------------------------------------------------------|

|------------------------------------------------------------------------------------|

|-----3-3---3----5---------------------------3-3-----3----5------5---5--3-0-5---5-3-5|

|--3------3----3-------3------3-5-3-5-3---------3-----3------------------------------|

Chorus

|--------------------------------------------|

|--------------------------------------------|

|-----0-2-3----2---0--------0----0-2-3------2|

|-3------------------------------------------|

Verse 2

|-------------------------------------|

|-------------------------------------|

|----3-3---3----5---------------------|

|-3------3----3-------3------3-5-3-5-3|

Going Into Guitar Solo

|-------------------------------------------------------------------|

|-------------------------------------------------5-----------------|

|-----------0-2-3---2-5----5-5-5-5-5-5-------------5-5-5-5-5-5-5-5\3|

|---3---------------------------------------3-----------------------|

Guitar solo

|---------------------------------------------------------------------|

|---------------------------------------------------------------------|

|---0-2-3-2-0----0-2-3--2------0-2-3--2--5--5-5----5-0-2-3---3-3-2-2-0|

|-3----------------------------3--------------------------------------|

Ending

|------------------------------------------|

|------------------------------------------|

|-5-5-5-0-2-3-5-5-5-0-2-3-5-5-5-5-5-5-5-5-5|

|------------------------------------------|

Verse 1 0:47 – 1:01

Chorus 1:02 – 1:16

Verse 2 1:17 – 1:46

Chorus 1:47 – 2:12

Going Into Guitar Solo 2:13 – 2:19

Guitar Solo 2:20 – 2:49

Chorus 2:50 – 3:15

Ending 3:16 – Until End

Get this song at:  amazon.com sheetmusicplus.com

Share your thoughts

0 Comments found