Ac Dc

Ac Dc - You Shook Me All Night Long Bass Tab bass tab

|-----------------------------------------------------------------------------------|

|-----------------------------------------------------------------------------------|

|--------3-3----3----5--------------5---5-----------3-3----3------5----------5---5--|

|---3-------3----3------------3-3----3---3-------------3-----3----------3-3---3---3-|

|-----------------------------------------------------------------------------------|

|-----------------------------------------------------------------------------------|

|---------3-3----3----5--------------5---5-----------3-3----3------5--55555555555555|

|---3----------3----3------------3-3---3---3-------------3------3-------------------|

|-----------------------------------------------------------------------------------|

|-----------------------------------------------------------------------------------|

|------------0-2-3-2-5-5555-0-2-3-2----------------0-2-3-2-5-5555-0-2-3-2-----------|

|---3-------------------------------------3----------------------------------------3|

|-----------------------------------------------------------------------------------|

|-----------------------------------------------------------------------------------|

|------------0-2-3-2-5-5555-0-2-3-2----------------0-2-3-2-5-55555555555555---------|

|---3-----------------------------------------3-------------------------------------|

|-----------------------------------------------------------------------------------|

|-----------------------------------------------------------------------------------|

|--------3-3----3----5--------------5---5-----------3-3----3------5-----------5---5-|

|---3--------3----3------------3-3---3---3-------------3-----3-----------3-3---3---3|

|-----------------------------------------------------------------------------------|

|-----------------------------------------------------------------------------------|

|------3-3-------3----5--------------5---5-----------3-3----3------5--55555555555555|

|---3-----------3----3------------3-3---3---3-------------3------3------------------|

|-----------------------------------------------------------------------------------|

|-----------------------------------------------------------------------------------|

|------------0-2-3-2-5-5555-0-2-3-2-5-5555-0-2-3-2-5-555555555555555555555555555555-|

|---3-------------------------------------------------------------------------------|

Get this song at:  amazon.com sheetmusicplus.com

Share your thoughts

0 Comments found