Ac Dc

Ac Dc - You Shook Me All Night Long (100% Perfect) bass tab

ACDC

You Shook Me All Night Long

Tuning: Standard

Tempo: d= 132

----------------------------

Wait for guitar/drums intro

Verse1

0:32

G[------------------------------]

D[-------------------5-5---5----]x3

A[-----3-3---3---5-------5---5\-]

E[-3-------3---3----------------]

G[--------------------------------]

D[--------------------------------]

A[-----3-3---3---5555555555555555-]

e[-3-------3---3------------------]

Chorus

1:01

G[-------------------------------------]

D[-------------------------------------]x2

A[--------0-2-3--2~-5~-5-5-0-2-3~-2~---]

E[-3-3~-3----------------------------0-]

Verse2

1:16

G[------------------------------]

D[-------------------5-5---5----]x3

A[-----3-3---3---5-------5---5\-]

E[-3-------3---3----------------]

G[--------------------------------]

D[--------------------------------]

A[-----3-3---3---5555555555555555-]

e[-3-------3---3------------------]

Chorus

1:47

G[-------------------------------------]

D[-------------------------------------]x3

A[--------0-2-3--2~-5~-5-5-0-2-3~-2~---]

E[-3-3~-3----------------------------0-]

G[-------------------------------------]

D[-------------------------------------]

A[------0-2-3--2--0-5~555555555555555~-]

E[-/3-3--------------------------------]

Solo

2:20 [ALONG WITH RYTHM GUITAR]

Listen for the timing at this part

G[------------------------------------------------------------------]

D[------------------------------------------------------------------]

A[----0-2-3--2--5---0-2-3--2-----0-2-3~3-3-2~2-0-5-55555553~33222---]

E[-3--------------------------3-----------------------------------0-]

G[------------------------------------------------------------------------------------]

D[------------------------------------------------------------------------------------]

A[--------0-2-3--2-2--5-5-5--5-0-2-3-3--2-2-2---------0-2-3-3-2~-555-5-0-2-3332-------]

E[-3-3~-3-------------------------------------0-3-3-3---------------------------0-1-2-]

Outro Chorus

2:50

G[-------------------------------------]

D[-------------------------------------]x4

A[--------0-2-3--2~-5~-5-5-0-2-3~-2~---]

E[-3-3~-3----------------------------0-]

G[-------------------------------------]

D[-------------------------------------]

A[------0-2-3--2--0-5~555555555555555--]

E[-/3-3--------------------------------]

Have Fun

Get this song at:  amazon.com sheetmusicplus.com

Share your thoughts

0 Comments found