Ac Dc

Ac Dc - You shock me all nigth long bass tab

Guitar Intro and first verse 1: (0:58)

G:-------------------------------------

D:-------------------------------------

A:-5-5-5-5-5-5-5-5-5-5-5-5-5-5-5-5-----

E:-------------------------------------

Chorus

G:---------------------------------------------

D:---------------------------------------------

A:-----0-2-3--2--5---5-5-5---0-2-3--2----------

E:--3-------------------------------------3----

2nd Verse (1st, 2nd, and 4th times)

G:-------------------------

D:---------------5-5---5---

A:-3-3---3---5-------5---5-

E:-3--------3----3---------

3rd Time

G:-------------------------

D:---------------5-5-4-5-4-

A:----3-3---3---5----------

E:-3-------3----3----------

Intro Chorus

G:--------------------------

D:--------------------------

A:-5-5-5-5-5-5-5-5-5-5-5-5-5

E:--------------------------

Guitar Solo

G:----------------------------

D:----------------------------

A:---0-2-3--2--5--0-2-3-2-----

E:-------------------------3--

Guitar Solo (continued)

G:---------------------------------------------

D:---------------------------------------------

A:---0-2-3--2--5-5-5-5-5-0-2-3-3-3-2-2-2-------

E:-------------------------------------------3-

Get this song at:  amazon.com

Share your thoughts

0 Comments found