Ac Dc

Ac Dc - You Aint Got A Hold On Me guitar tab

You Ain't Got A Hold On Me

Intro:

E|-------------------|---------------------|-------------------|

B|--3----------------|---------------------|-------------------|

G|--2----------------|---------------------|--0----------------|

D|--0----------------|---------------------|--0----------------|

A|-------------------|------------3--5--3--|-------------------|

E|-------------------|---------------------|--3----------------|

|---------------------|-------------------|---------------------|

|---------------------|--3----------------|---------------------|

|---------------------|--2----------------|---------------------|

|---------------------|--0----------------|---------------------|

|---------------0--3--|-------------------|------------3--5--3--|

|------------3--------|-------------------|---------------------|

|-------------------|----------------------|-----------------------|

|-------------------|----------------------|-----------------------|

|--0----------------|----------------------|-----------------------|

|--0----------------|----------------------|-----------------------|

|-------------------|-------------------3/-|--5----5----3--5----3/-|

|--3----------------|----------3--3--5-----|-----------------------|

verse: you can

|-----------------------|-----------------------|------------------------|

|-----------------------|-----------------------|------------------------|

|-----------------------|-----------------------|------------------------|

|-----------------------|-----------------------|------------------------|

|--5----5----3--5----3/-|--5----5----3--5----3/-|--5----5----------3--3/-|

|-----------------------|-----------------------|------------3--5--------|

roll me around your finger you can roll me if I'm blind...

|-----------------------|-----------------------|-----------------------|

|-----------------------|-----------------------|-----------------------|

|-----------------------|-----------------------|-----------------------|

|-----------------------|-----------------------|-----------------------|

|--5----5----3--5----3/-|--5----5----3--5----3--|-----------------------|

|-----------------------|-----------------------|--5----5----3--5----3/-|

roll me tally ho-ho I'm the

|-----------------------|-----------------------|-----------------------|

|-----------------------|-----------------------|-----------------------|

|-----------------------|-----------------------|-----------------------|

|-----------------------|-----------------------|-----------------------|

|-----------------------|-----------------------|--------------------3/-|

|--5----5----3--5----3/-|--5----5----3--5----3/-|--5----5----3--5-------|

easy rollin' kind but don't think I'm facin' down hill

|-----------------------|-----------------------|-----------------------|

|-----------------------|-----------------------|-----------------------|

|-----------------------|-----------------------|-----------------------|

|-----------------------|-----------------------|-----------------------|

|--5----5----3--5----3/-|--5----5----3--5-------|-----------------------|

|-----------------------|--------------------1/-|--3----3----1--3----1/-|

cause soon you'll see

|-----------------------|-----------------------|-----------------------|

|-----------------------|-----------------------|-----------------------|

|-----------------------|-----------------------|-----------------------|

|-----------------------|-----------------------|-----------------------|

|--------------------3/-|--5----5----3--5----3/-|--5----5----3--5-------|

|--3----3----1--3-------|-----------------------|--------------------3/-|

you'll lose your... you ain't got...

|-----------------------|----------------------|---------------------|

|-----------------------|----------------------|---------------------|

|-----------------------|----------------------|--3--------5------7--|

|-----------------------|----------------------|--3--------5------7--|

|-----------------------|----------------------|--1--------3------5--|

|--5----5----3--5----3/-|--5----5----3--5------|---------------------|

Chorus: you ain't...

|------------------|--------------------|--------------------|------------------|

|------------------|--------------------|--3-----------------|------------------|

|------------------|----------3----5----|--2-----------------|------------------|

|------------------|----------3----5----|--0--------------3--|------------------|

|------------------|----------1----3----|-----------------3--|------------------|

|------------------|--------------------|-----------------1--|------------------|

you ain't... why don't you...

|--------------------|------------------|--------------------|------------------|

|--3--------------3--|------------------|--------------------|------------------|

|--3--------------2--|------------------|--3--------------2--|------------------|

|--5--------------0--|------------------|--3--------------2--|------------------|

|--5-----------------|------------------|--1--------------0--|------------------|

|--3-----------------|------------------|--------------------|------------------|

you ain't got... to verse:

|---------------------|------------------|----------------------|

|---------------------|------------------|----------------------|

|--3--------5------7--|------------------|----------------------|

|--3--------5------7--|------------------|----------------------|

|--1--------3------5--|------------------|----------------3--3/-|

|---------------------|------------------|----------3--5--------|

after 2nd chorus these chords inserted:

|---------------------|------------------|--------------------|

|---------------------|------------------|--------------------|

|--3--------5------7--|------------------|----------3----5----|

|--3--------5------7--|------------------|----------3----5----|

|--1--------3------5--|------------------|----------1----3----|

|---------------------|------------------|--------------------|

then solo part:

|-----------------------||

|-----------------------||

|-----------------------||

|-----------------------||

|--5----5----3--5----3/-||

|-----------------------||

Tablature by Clemens Fehlow.

Get this song at:  amazon.com sheetmusicplus.com

Share your thoughts

0 Comments found