Ac Dc

Ac Dc - Whole Lotta Rosie guitar tab

AC/DC

Whole Lotta Rosie

This song has a great beat to it, this should be pretty accurate

the riffs are easy but the solo is pretty hard. Have Fun.

e-----------------------------------------------------------------------------------------

B-----------------------------------------------------------------------------------------

G--2----5--------7------5---2-----------------2-----5-------7-----5--2--------------------

D--2----5--------7------5---2-----------------2-----5-------7-----5--2--------------------

A--0----3----0---5--0---3---0-----------------0-----3----0--5--0--3--0--------------------

E-----------------------------------------------------------------------------------------

repeat 4 times

verse (comes after last repeat)

e---------------------------------------------------------------------------------

B---------------------------------------------------------------------------------

G--2--x--x---2------2-------------------------------------------------------------

D--2--x--x---2------2-------------------------------------------------------------

A--0--x--x---0---0--0---------0----3---0--5---0---3---0---------------------------

E---------------------------------------------------------------------------------

Repeat 7 times

Pre Chorus

e-----------------------------------------------------------------------

B----------------------------------------------3----3----3--------------

G--2--2--2--2--2--2--2--2----------------------2----2----2--------------

D--2--2--2--2--2--2--2--2-----3----3---3-------0----0----0--------------

A--0--0--0--0--0--0--0--0-----3----3---3--------------------------------

E-----------------------------1----1---1--------------------------------

Chorus

e------------------3---------------------------3----------------------------

B------------------3---------------------------3----------------------------

G--2--------2------0------------2--------2-----0----------------------------

D--2--------2------0------------2--------2-----0----------------------------

A--0--------0-------------------0--------0----------------------------------

E------------------3---------------------------3----------------------------

Repeat twice

After Chorus Play this then go back into the verse

e-----------------------------------------------------

B--3---3----3--------3------3------3------------------

G--0---0----0--------0------0------0------------------

D--0---0----0--------0------0------0------------------

A-----------------------------------------------------

E--3----2---3--------2------3------4------------------

After the second chorus comes the solo

(the first fives are fast picking)

e--------------------------------------------------------------------------------------------------------------------

B-------------------------------------------------------------------------------------------------------------------

G----555555555555555---5-------/55555555555555----------/555555555555----5555555555/4b5------------------------------

D-------------------------7----------------------7---7----------------------------------------------------------

A--------------------------------------------------------------------------------------------------------------------

E-------------------------------------------------------------------------------------------------------------------

e--------------------------5----------------------------------5---------------------------------------------

B----------8----------------8--5-------------------------------8--5--------------------------------8b10-----

G---7b9------7b9---7-------------7--5--7--5------7----5-------------7-5-7-5----7------5-5--5----------------

D--------------------------------------------------7-----7-------------------7----7-------------------------

A-----------------------------------------------------------------------------------------------------------

E-----------------------------------------------------------------------------------------------------------

e---7-8--7--5--7--8--7-5--7-8--7--5---7--8----7--5--7--8---7--5---7----8--7---5----7--8---7--5--7--8-------------

B----------------------------------------------------------------------------------------------------------------

G----------------------------------------------------------------------------------------------------------------

D---------------------------------------------------------------------------------------------------------------

A----------------------------------------------------------------------------------------------------------------

E----------------------------------------------------------------------------------------------------------------

e--10---8---7-----5----------------------------------------------------------------------------

B---------------8-----5--7---5--7--7-----------------------------------13b15b17-----15b17------

G---------------------------------------7--5----------5----------------------------------------

D----------------------------------------------7----5------7--------7--------------------------

A--------------------------------------------------------------/-9-----------------------------

E----------------------------------------------------------------------------------------------

e--------5----8--8--7--5-----7----5------5------------------------------------------------------------

B--/7---------------------------------8------8p7p5--7p5-----------------------------------------------

G----------------------------------------------------------------7p5-------/9v------------------------

D-----------------------------------------------------------------------------------------------------

A-----------------------------------------------------------------------------------------------------

E-----------------------------------------------------------------------------------------------------

This is my favorite part of the whole song, its the duel between Malcom and Angus

Malcom Plays Chords and Angus plays this sweet riff

e-------------------------------- -------------------------------------------------------

B-------------------------------- -------------------------------------------------------

G---------5-----7-----5---------- --2----5------7-----5---2------------------------------

D--/7--------7-----7----7-------- --2----5------7-----5---2------------------------------

A-------------------------------- --0----3--0---5--0--3---0------------------------------

E-------------------------------- -------------------------------------------------------

Angus Malcom

This duel repeats 7 times and on the last time Angus palm mutes his riff and plays it 3

times

then it goes into the second solo

e------------5-----------------------------------------------------------------------------------

B---------8----8--5---5--8--5----5--8--5-----5-8--5----5--8--5-----5--8-------5------------------

G--7b9--------------7----------7-----------7---------7-----------7--------7--------7b9---7b9-----

D------------------------------------------------------------------------------------------------

A------------------------------------------------------------------------------------------------

E------------------------------------------------------------------------------------------------

e--5--------------------------------------------------------------------------17---------------

B----8---5------5---------------------------20b22--20b22--20b22----------20-----17b22----------

G-------------7----7--5-----7----5---/2--------------------------------------------------------

D-------------------------7--------------------------------------------------------------------

A----------------------------------------------------------------------------------------------

E----------------------------------------------------------------------------------------------

e---17-------------17---------- 17--------------17-------------17----------------17--------------------

B-------20-17b22------20--17b22-----20-17b22-------20--17b22--------20--17b22--------20--17b22---------

G-------------------------------------------------------------------------------------------------------

D-------------------------------------------------------------------------------------------------------

A-------------------------------------------------------------------------------------------------------

E-------------------------------------------------------------------------------------------------------

e--17--20p17----17---------------------17------- 17----------17--------- 17------------------

B-------------20----20p17----17-20p17--17h20p17--17h20p17--- 17h20p17----17h20p17------------

G------------------------19--------------------19---------19----------19----------19---------

D--------------------------------------------------------------------------------------------

A--------------------------------------------------------------------------------------------

E--------------------------------------------------------------------------------------------

e-17------------17------------17/---------------------------------------------------------------------

B-17h20p17------17h20p17------17/-----------------------------------------------20b22----20b22---------

G------------19-----------19-------x---x----0----------------------------------------------------------

D-----------------------------------------------------------4b5--4b5-----------------------------------

A-----------------------------------------------------------------------0---0---------0----------0------

E-------------------------------------------------------------------------------------------------------

e----------------------------------------------------------------------------------------------------

B-14---14--14---14--14-14-14--------------------------------5---8p5--------5---8p5-------5--8p5-----

G-14---14--14---14--14-14-14--------------5---7----7b9---------------7b9-------------7b9-------------

D-14---14--14---14--14-14-14-------7----------------------------------------------------------------

A--0----0---0--- 0---0--0- 0-----0------------------------------------------------------------------

E----------------------------------------------------------------------------------------------------

e---------------------------5----------------------------------------------------------------------

B---------5---8p5-------------5-8p5-7p5---------------------------------------------------2--------

G--7b9--------------7------------------------8p5--7p5-----7-------------------------------2--------

D-------------------------------------------------------7----7p5---7p5-----7--------------2--------

A-----------------------------------------------------------------------7------7p5/3------0--------

E--------------------------------------------------------------------------------------------------

Get this song at:  amazon.com sheetmusicplus.com

Share your thoughts

0 Comments found