Ac Dc

Ac Dc - Whats Next To The Moon Bass guitar tab

AC/DC-What's Next to the Moon

Powerage (1978)

Tabbed by: playinbass1432

Email: webmaster at tabs-database.com.com

Standard Tuning

Intro:

E

G|-----------------|-----------------|-----------------|-----------------|

D|-----------------|-----------------|-----------------|-----------------|

A|-----------------|-----------------|-----------------|-----------------|

E|-0-0-0-0-0-0-0-0-|-0-0-0-0-0-0-0-0-|-0-0-0-0-0-0-0-0-|-0-0-0-0-0-0-0-0-|

E

G|-----------------|-----------------|-----------------|-----------------|

D|-----------------|-----------------|-----------------|-----------------|

A|-----------------|-----------------|-----------------|-----------------|

E|-0-0-0-0-0-0-0-0-|-0-0-0-0-0-0-0-0-|-0-0-0-0-0-0-0-0-|-0-0-0-0-0-0-0-0-|

Verse 1:

E

G|-----------------|-----------------|-----------------|-----------------|

D|-----------------|-----------------|-----------------|-----------------|

A|-----------------|-----------------|-----------------|-----------------|

E|-0-0-0-0-0-0-0-0-|-0-0-0-0-0-0-0-0-|-0-0-0-0-0-0-0-0-|-0-0-0-0-0-0-0-0-|

E

G|-----------------|-----------------|-----------------|-----------------|

D|-----------------|-----------------|-----------------|-----------------|

A|-----------------|-----------------|-----------------|-----------------|

E|-0-0-0-0-0-0-0-0-|-0-0-0-0-0-0-0-0-|-0-0-0-0-0-0-0-0-|-0-0-0-0-0-0-0-3-|

A

G|-----------------|-----------------|-----------------|-----------------|

D|-----------------|-----------------|-----------------|-----------------|

A|-----------------|-----------------|-----------------|-----------------|

E|-5-5-5-5-5-5-5-5-|-5-5-5-5-5-5-5-5-|-5-5-5-5-5-5-5-5-|-5-5-5-5-5-5-5-0-|

E

G|-----------------|-----------------|-----------------|-----------------|

D|-----------------|-----------------|-----------------|-----------------|

A|-----------------|-----------------|-----------------|-----------------|

E|-0-0-0-0-0-0-0-0-|-0-0-0-0-0-0-0-0-|-0-0-0-0-0-0-0-0-|-0-0-0-0-0-0-0-0-|

Chorus 1:

B C# D D C# B B C# D D C# B

G|-----------------|-----------------|-----------------|-----------------|

D|-----------------|-----------------|-----------------|-----------------|

A|-2-4-5---5-4-2---|-----------------|-2-4-5---5-4-2---|-----------------|

E|-----------------|-----------------|-----------------|-----------------|

B C# D D C# B B C# D D C# B

G|-----------------|-----------------|-----------------|-----------------|

D|-----------------|-----------------|-----------------|-----------------|

A|-2-4-5---5-4-2---|-----------------|-2-4-5---5-4-2---|-----------------|

E|-----------------|-----------------|-----------------|-----------------|

Verse 2:

E

G|-----------------|-----------------|-----------------|-----------------|

D|-----------------|-----------------|-----------------|-----------------|

A|-----------------|-----------------|-----------------|-----------------|

E|-0-0-0-0-0-0-0-0-|-0-0-0-0-0-0-0-0-|-0-0-0-0-0-0-0-0-|-0-0-0-0-0-0-0-0-|

E

G|-----------------|-----------------|-----------------|-----------------|

D|-----------------|-----------------|-----------------|-----------------|

A|-----------------|-----------------|-----------------|-----------------|

E|-0-0-0-0-0-0-0-0-|-0-0-0-0-0-0-0-0-|-0-0-0-0-0-0-0-0-|-0-0-0-0-0-0-0-3-|

A

G|-----------------|-----------------|-----------------|-----------------|

D|-----------------|-----------------|-----------------|-----------------|

A|-----------------|-----------------|-----------------|-----------------|

E|-5-5-5-5-5-5-5-5-|-5-5-5-5-5-5-5-5-|-5-5-5-5-5-5-5-5-|-5-5-5-5-5-5-5-0-|

E

G|-----------------|-----------------|-----------------|-----------------|

D|-----------------|-----------------|-----------------|-----------------|

A|-----------------|-----------------|-----------------|-----------------|

E|-0-0-0-0-0-0-0-0-|-0-0-0-0-0-0-0-0-|-0-0-0-0-0-0-0-0-|-0-0-0-0-0-0-0-0-|

Chorus 2:

B C# D D C# B B C# D D C# B

G|-----------------|-----------------|-----------------|-----------------|

D|-----------------|-----------------|-----------------|-----------------|

A|-2-4-5---5-4-2---|-----------------|-2-4-5---5-4-2---|-----------------|

E|-----------------|-----------------|-----------------|-----------------|

B C# D D C# B B C# D D C# B

G|-----------------|-----------------|-----------------|-----------------|

D|-----------------|-----------------|-----------------|-----------------|

A|-2-4-5---5-4-2---|-----------------|-2-4-5---5-4-2---|-----------------|

E|-----------------|-----------------|-----------------|-----------------|

Guitar Solo:

Crescendo > > > > > > > >

A A A

G|-----------------|-----------------|-----------------|-----------------|

D|-----------------|-----------------|-----------------|-----------------|

A|-----------------|-----------------|-----------------|-----------------|

E|-5---------------|-------------5---|-5-5-5-5-5-5-5-5-|-5-5-5-5-5-5-5-5-|

A B C# D D C# B

G|-----------------|-----------------|-----------------|-----------------|

D|-----------------|-----------------|-----------------|-----------------|

A|-----------------|-----------------|-----------------|-2-4-5---5-4-2---|

E|-5-5-5-5-5-5-5-5-|-5-5-5-5-5-5-5-5-|-5-5-5-5-5-5-5-5-|-----------------|

B C# D D C# B

G|-----------------|-----------------|

D|-----------------|-----------------|

A|-2-4-5---5-4-2---|-----------------|

E|-----------------|-----------------|

Verse 3:

E

G|-----------------|-----------------|-----------------|-----------------|

D|-----------------|-----------------|-----------------|-----------------|

A|-----------------|-----------------|-----------------|-----------------|

E|-0-0-0-0-0-0-0-0-|-0-0-0-0-0-0-0-0-|-0-0-0-0-0-0-0-0-|-0-0-0-0-0-0-0-0-|

E

G|-----------------|-----------------|-----------------|-----------------|

D|-----------------|-----------------|-----------------|-----------------|

A|-----------------|-----------------|-----------------|-----------------|

E|-0-0-0-0-0-0-0-0-|-0-0-0-0-0-0-0-0-|-0-0-0-0-0-0-0-0-|-0-0-0-0-0-0-0-3-|

A

G|-----------------|-----------------|-----------------|-----------------|

D|-----------------|-----------------|-----------------|-----------------|

A|-----------------|-----------------|-----------------|-----------------|

E|-5-5-5-5-5-5-5-5-|-5-5-5-5-5-5-5-5-|-5-5-5-5-5-5-5-5-|-5-5-5-5-5-5-5-0-|

E

G|-----------------|-----------------|-----------------|-----------------|

D|-----------------|-----------------|-----------------|-----------------|

A|-----------------|-----------------|-----------------|-----------------|

E|-0-0-0-0-0-0-0-0-|-0-0-0-0-0-0-0-0-|-0-0-0-0-0-0-0-0-|-0-0-0-0-0-0-0-0-|

Chorus 3:

B C# D D C# B B C# D D C# B

G|-----------------|-----------------|-----------------|-----------------|

D|-----------------|-----------------|-----------------|-----------------|

A|-2-4-5---5-4-2---|-----------------|-2-4-5---5-4-2---|-----------------|

E|-----------------|-----------------|-----------------|-----------------|

B C# D D C# B B C# D D C# B

G|-----------------|-----------------|-----------------|-----------------|

D|-----------------|-----------------|-----------------|-----------------|

A|-2-4-5---5-4-2---|-----------------|-2-4-5---5-4-2---|-----------------|

E|-----------------|-----------------|-----------------|-----------------|

B C# D D C# B B C# D D C# B

G|-----------------|-----------------|-----------------|-----------------|

D|-----------------|-----------------|-----------------|-----------------|

A|-2-4-5---5-4-2---|-----------------|-2-4-5---5-4-2---|-----------------|

E|-----------------|-----------------|-----------------|-----------------|

B C# D D C# B B C# D D C# B

G|-----------------|-----------------|-----------------|-----------------|

D|-----------------|-----------------|-----------------|-----------------|

A|-2-4-5---5-4-2---|-----------------|-2-4-5---5-4-2---|-----------------|

E|-----------------|-----------------|-----------------|-----------------|

Outro:

A

G|-----------------|-----------------|-----------------|-----------------|

D|-----------------|-----------------|-----------------|-----------------|

A|-----------------|-----------------|-----------------|-----------------|

E|-5-5-5-5-5-5-5-5-|-5-5-5-5-5-5-5-5-|-5-5-5-5-5-5-5-5-|-5-5-5-5-5-5-5-5-|

A

G|-----------------|-----------------|-----------------|-----------------|

D|-----------------|-----------------|-----------------|-----------------|

A|-----------------|-----------------|-----------------|-----------------|

E|-5-5-5-5-5-5-5-5-|-5-5-5-5-5-5-5-5-|-5-5-5-5-5-5-5-5-|-5-5-5-5-5-5-5-5-|

A

G|-----------------|-----------------|-----------------|-----------------|

D|-----------------|-----------------|-----------------|-----------------|

A|-----------------|-----------------|-----------------|-----------------|

E|-5-5-5-5-5-5-5-5-|-5-5-5-5-5-5-5-5-|-5-5-5-5-5-5-5-5-|-5-5-5-5-5-5-5-5-|

A

G|-----------------|-----------------|-----------------|-----------------|

D|-----------------|-----------------|-----------------|-----------------|

A|-----------------|-----------------|-----------------|-----------------|

E|-5-5-5-5-5-5-5-5-|-5-5-5-5-5-5-5-5-|-5-5-5-5-5-5-5-5-|-5-5-5-5-5-5-5-5-|

A

G|-----------------|-----------------|-----------------|-----------------|

D|-----------------|-----------------|-----------------|-----------------|

A|-----------------|-----------------|-----------------|-----------------|

E|-5-5-5-5-5-5-5-5-|-5-5-5-5-5-5-5-5-|-5-5-5-5-5-5-5-5-|-5-5-5-5-5-5-5-5-|

Added by tabs-database.com and our distinguished partners

Get this song at:  amazon.com sheetmusicplus.com

Share your thoughts

0 Comments found