Ac Dc

Ac Dc - What Do You Do For Money Honey guitar tab

What Do You Do For Money Honey

Intro (and Chorus):

E|---------3----------|----2--2--------------|---------3----------|

B|---------3----------|----3--3--2--2--------|---------3----------|

G|--1------0----------|----2--2--2--2--------|--1------0----------|

D|--2------0----------|----0--0--2--2--------|--2------0----------|

A|--2------2----------|----------0--0--------|--2------2----------|

E|--0------3----------|----------------------|--0------3----------|

|----2--2--------------|---------3----------|----2--2--------------|

|----3--3--2--2--------|---------3----------|----3--3--2--2--------|

|----2--2--2--2--------|--1------0----------|----2--2--2--2--------|

|----0--0--2--2--------|--2------0----------|----0--0--2--2--------|

|----------0--0--------|--2------2----------|----------0--0--------|

|----------------------|--0------3----------|----------------------|

|---------3----------|------------------|

|---------3----------|------------------|

|--1------0----------|------------------|

|--2------0----------|------------------|

|--2------2----------|------------------|

|--0------3----------|------------------|

Verse:

|----------------------|---------------------|---------------------|

|----------------------|---------------------|---------------------|

|---9------7--------7--|------------------7--|--9------7--------7--|

|---9------7--------7--|--------5----5----7--|--9------7--------7--|

|---7------5--------4--|--------5----5----5--|--7------5--------4--|

|----------------------|--------3----2-------|---------------------|

|--------3----2--------|----------------------|---------------------|

|--------3----3--------|----------------------|--------3----3-------|

|--------0----2----7---|---9------7--------7--|--------0----2----7--|

|--------0----0----7---|---9------7--------7--|--------0----0----7--|

|--------2----0----5---|---7------5--------4--|--------2----0----5--|

|--------3---------0---|----------------------|--------3---------0--|

|---------------------|---------------------------|---------------------|

|---------------------|---------------------------|---------------------|

|--9------7--------7--|--------------------------*|--9------7--------7--|

|--9------7--------7--|--------------------------*|--9------7--------7--|

|--7------5--------4--|---------------------------|--7------5--------4--|

|--0------------------|----0----0--0--0--0-0-0-0--|--0------------------|

|--------3----2-------|---------------------|

|--------3----3-------|------------------2--|

|--------0----2-------|--9------7--------2--|

|--------0----0-------|--9------7--------2--|

|--------2----0-------|--7------5--------0--|

|--------3---------0--|--0------------------|

|-------------------------|--------------------------|

|----2--2--2--2--2--2--2--|--2--2--2--2--2--2--2--2--|

|----2--2--2--2--2--2--2--|--2--2--2--2--2--2--2--2--|

|----2--2--2--2--2--2--2--|--2--2--2--2--2--2--2--2--|

|----0--0--0--0--0--0--0--|--0--0--0--0--0--0--0--0--|

|-------------------------|--------------------------|

Tablature by Clemens Fehlow.

Get this song at:  amazon.com

Share your thoughts

0 Comments found