Ac Dc

Ac Dc - Walk All Over You guitar tab

Walk All Over You

Intro:

E|-------------------------------------|------------------------------------|

B|-------------------------------------|-------------------3----------------|

G|-------------------------------------|--0----------------2----------------|

D|--2----------------------------------|--0----------------0----------------|

A|--2----------------------------------|--x----------------0----------------|

E|--0----------------------------0--2--|--3---------------------------------|

|-----------------------------------|----------------------------------|

|-----------------------------------|----------------------------------|

|--2--------------------------------|----------------------------------|

|--2--------------------------------|----------------------------------|

|--0--------------------------------|----------------------------------|

|-----------------------------------|----------------------------------|

|--------------------------------------|--3----------------2----------------|

|--------------------------------------|--3----------------3----------------|

|*-------------------------------------|--0----------------2----------------|

|*--2----------------------------------|--0----------------0----------------|

|---2----------------------------------|--2----------------0----------------|

|---0----------------------------0--2--|--3---------------------------------|

3x Riff:

|-------------------|-------------------||----------------2----|

|-------------------|-------------------||---------3------3----|

|--2----------------|------------------*||---------0------2----|

|--2----------------|------------------*||--2------0------0----|

|--0----------------|-------------------||--2------2-----------|

|-------------------|-------------------||--0------3-----------|

2x

|---------------------||---0----0--3----3--2----|------------------------||

|-----------3---------||---0----0--3----3--3----|---------2--3--2--------||

|----2------2--2------||*--1----1--0----0--2----|----2----2--2--2----2--*||

|----2------0--2------||*--2----2--0----0--0----|----2----2--2--2----2--*||

|----0---------0------||---2----2--x------------|----0----0--0--0----0---||

|---------------------||---0----0--3------------|------------------------||

3x Out of my way...

|---0----0--3----3--2----|--2-----------------------||-------------------|

|---0----0--3----3--3----|--3-------2--3--2--2--2---||-------------------|

|*--1----1--0----0--2----|--2--2----2--2--2--2--2--*||--1----------------|

|*--2----2--0----0--0----|--0--2----2--2--2--2--2--*||--2----------------|

|---2----2--x------------|-----0----0--0--0--0--0---||--2----------------|

|---0----0--3------------|--------------------------||--0----------------|

|------------------|--3------3------3----|----2------2----2----|

|------------------|--3------3------3----|----3------3----3----|

|------------------|--0------0------0----|----2------2----2----|

|------------------|--0------0------0----|----0------0----0----|

|------------------|--x------x------x----|---------------------|

|------------------|--3------3------3----|---------------------|

|-------------------|------------------|--3------3------3----|

|-------------------|------------------|--3------3------3----|

|--1----------------|------------------|--0------0------0----|

|--2----------------|------------------|--0------0------0----|

|--2----------------|------------------|--x------x------x----|

|--0----------------|------------------|--3------3------3----|

ain't no woman...

|----2------2----2----|-------------------|------------------|

|----3------3----3----|-------------------|------------------|

|----2------2----2----|--1----------------|------------------|

|----0------0----0----|--2----------------|------------------|

|---------------------|--2----------------|------------------|

|---------------------|--0----------------|------------------|

I ain't lookin...

|--3------3------3----|----2------2----2----|-------------------|

|--3------3------3----|----3------3----3----|-------------------|

|--0------0------0----|----2------2----2----|--2----------------|

|--0------0------0----|----0------0----0----|--2----------------|

|--x------x------x----|---------------------|--0----------------|

|--3------3------3----|---------------------|-------------------|

|------------------|---------------------|---------------------|

|------------------|---------3-----------|----3----------------|

|------------------|--2------2------2----|----2------2----2----|

|------------------|--2------0------2----|----0------2----2----|

|------------------|--0-------------0----|-----------0----0----|

|------------------|---------------------|---------------------|

Walk all over you

|-------------------------------------|------------------------------------|

|-------------------------------------|--3----------------3----------------|

|-------------------------------------|--0----------------2----------------|

|--2----------------------------------|--0----------------0----------------|

|--2----------------------------------|--2---------------------------------|

|--0----------------------------0--2--|--3---------------------------------|

|-------------------------------------|------------------------------------|

|-------------------------------------|--3----------------3----------------|

|-------------------------------------|--0----------------2----------------|

|--2----------------------------------|--0----------------0----------------|

|--2----------------------------------|--2---------------------------------|

|--0----------------------------0--2--|--3---------------------------------|

|-------------------------------------|------------------------------------|

|-------------------------------------|--3----------------3----------------|

|-------------------------------------|--0----------------2----------------|

|--2----------------------------------|--0----------------0----------------|

|--2----------------------------------|--2---------------------------------|

|--0----------------------------0--2--|--3---------------------------------|

|---------------------|------------------|---------------------|---------------------|

|--2------3------2----|------------------|--2------3------2----|----3------2----3----|

|--2------2------2----|------------------|--2------2------2----|----2------2----2----|

|--2------4------2----|------------------|--2------4------2----|----4------2----4----|

|--0------0------0----|------------------|--0-------------0----|-----------0---------|

|---------------------|------------------|---------------------|---------------------|

Tablature by Clemens Fehlow.

Get this song at:  amazon.com

Share your thoughts

0 Comments found