Ac Dc

Ac Dc - Twos Up Intro guitar tab

Tabbed by: Speedy D

Tabbed:Nov/14/04

Song: Two's Up

Band: ACDC

I have finally figured out the intro for Two's Up! I've been sick and tired of only

finding the Chords. So I will put it in Chord and Tableture form.

Legend

/- slide down Intro and Chorus

C A# F G G# A# C A# F G G# A#

|-----------------------------------|-----------------------------------|

|-----------------------------------|-----------------------------------|

|-5--------3------------------------|-5--------3------------------------|

|-5--------3------3----5----6----8--|-5--------3------3----5----6----8--|

|-3--------1------3----5----6----8--|-3--------1------3----5----6----8--|

|-----------------1----3----4----6--|-----------------1----3----4----6--|

Before Verse

C C C C C C A# A# A# C C C C C C C C C C C A# A# A#

|-----------------------------------------|----------------------------|

|-----------------------------------------|----------------------------|

|-5--5-5--5-5--5--3--3---3--5-5--5-5--5---|-5-5--5-5-5--5--3---3---3---|

|-5--5-5--5-5--5--3--3---3--5-5--5-5--5---|-5-5--5-5-5--5--3---3---3---|

|-3--3-3--3-3--3--1--1---1--3-3--3-3--3---|-3-3--3-3-3--3--1---1---1---|

|-----------------------------------------|----------------------------|

Verse

|----------------------------------|

|----------------------------------|

|-5/-------------------------8--8--| Repeat 4 Times Then back to the

|-5/----3-5-----5-6-----6-8--8--8--| beginning

|-3/----3-5-----5-6-----6-8--6--6--|

|-------1-3-----3-4-----4-6--------|

C F G G G# G# A# ? ?

Sorry. I have not gotten to the solo yet. I will post it later! Changes are welcome!

-----------------------------------------------------------------------------

-----------------------------------------------------------------------------

Get this song at:  amazon.com

Share your thoughts

0 Comments found