Ac Dc

Ac Dc - Twos Up bass tab

Intro

G|-----------------------------|

D|-----------------------------|

A|---3~------------------------|

E|-------6~-1~-3~-4~ 6~--------| x1 pause and then

G|-----------------------------|

D|-----------------------------|

A|-----------------------------|

E|--33333333333333333----------| x1 pause and then

G|-----------------------------|

D|-----------------------------|

A|--3~-------------------------|

E|------6~ 1~ 3~-4~-6~---------| x1 and then

G|------------------------------------------------------------------|

D|------------------------------------------------------------------|

A|--333333333-------------------------------------------------------|

E|------------666666666-11111111-333333333-4444444444 666666666-----|x1 and then

G|-----------------------------------------------|

D|-----------------------------------------------|

A|-33333333333333-----------333333333333333~-----|

E|-----------------6666--------------------------| x1

Verse

G|---------------------------------------------------|

D|---------------------------------------------------|

A|-3~------------------------------------------------|

E|----1~ 3~ 3~ 4~ 4~-6~6~6~--------------------------|x3 then

G|---------------------------------------------------------|

D|---------------------------------------------------------|

A|-3~------------------------------------------------------|

E|----1~ 3~ 3~ 4~ 4~-6~6~6~6~6~6~--------------------------|x1

pre chorus

G|-----------------------------------------------|

D|-----------------------------------------------|

A|-33333333333333--------------------------------|

E|-----------------666666666666666---------------| x1

chorus

G|------------------------------------------------------------------|

D|------------------------------------------------------------------|

A|--333333333-------------------------------------------------------|

E|------------666666666-11111111-333333333-4444444444 666666666-----|x1

G|-----------------------------------------------|

D|-----------------------------------------------|

A|-33333333333333-----------33333333333333-------|

E|-----------------6666--------------------------| x2 then

Verse x4

pre-chorus x1

Chorus x1 then

G|-----------------------------|

D|-----------------------------|

A|--3~-------------------------|

E|------6~ 1~ 3~-4~-6~---------|x1 then

Bridge

G|-----------------------------|

D|-----------------------------|

A|--3~-------------------------|

E|------6~ 1~ 3~-4~-6~---------|x2 listen for timing

Solo

G|------------------------------------------------------------------|

D|------------------------------------------------------------------|

A|--333333333-------------------------------------------------------|

E|------------666666666-11111111-333333333-4444444444 666666666-----|x1

G|-----------------------------|

D|-----------------------------|

A|--3~-------------------------|

E|------6~ 1~ 3~-4~-6~---------|x2

then chorus til end

Enjoy, this is how i play it when with my band

Get this song at:  amazon.com

Share your thoughts

0 Comments found