Ac Dc

Ac Dc - Touch Too Much guitar tab

TOUCH TOO MUCH - AC/DC

by Derek Rodrigues (derekr@eicon.com)

E------------------|-----------------------------------

B------------------|-----------------|-----------------

G--9---------------|-9---------------|-9---------------

D--9---------------|-9---------------|-9---------------

A--7-7-7-7-7-7-7-7-|-7-7-7-7-7-7-7-7-|-7-7-7-7-7-7-7-7-

E--0-0-0-0-0-0-0-0-|-0-0-0-0-0-0-0-0---0-0-0-0-0-0-0-0-

It was one of those nights when U turn out the lights and

E------------------|-------------------------------------------------

B------------------|------------------------|-5----------------------

G--9---------------|-9----------------------|-5----------------------

D--9---------------|-9----------------------|-5--5--5--5--5--5--5--5-

A--7-7-7-7-7-7-7-7-|-7--7--7--7--7--7--7--7-|-3--3--3--3--3--3--3--3-

E--0-0-0-0-0-0-0-0-|-0--0--0--0--0--0--0--0--------------------------

everything comes into view she was takin her time I was

E--------------------------|------------------------|-----------------

B--------------------------|-15-14-14-15-14-14-15---|-----------------

G--14----------------------|-14-14-14-14-14-14-14-7-|-9---------------

D--14-14-14-14-14-14-14-14-|-14-14-14-14-14-14-14-7-|-9---------------

A--0--0--0--0--0--0--0--0--|-0--0--0--0--0--0--0--0-|-7-7-7-7-7-7-7-7-

E--------------------------|------------------------|-0-0-0-0-0-0-0-0-

losin my mind there was nothin that she wouldn't do It

E------------------|-------------------------|------------------------

B------------------|-------------------------|-15-14-14-15-14-14-15---

G--5---------------|-14----------------------|-14-14-14-14-14-14-14-7-

D--5-5-5-5-5-5-5-5-|-14-14-14-14-14-14-14-14-|-14-14-14-14-14-14-14-7-

A--3-3-3-3-3-3-3-3-|-0--0--0--0--0--0--0--0--|-0--0--0--0--0--0--0--0-

E------------------|-------------------------|------------------------

wasn't the first It wasn't the last. She knew we was makin' love

E-------------------------|-----------------|-------------------------

B-------------------------|-----------------|-------------------------

G--5--------------5-----5-|-----------------|-2-----------------------

D--5--5--5--5--5--5--5--5-|-5-5-5-5-5-5-5-2-|-2--2--2--2--2--2--2--2--

A--3--3--3--3--3--3--3--3-|-3-3-3-3-3-3-3-0-|-0--0--0--0--0--0--0--0--

E-------------------------|-----------------|-------------------------

I was so satisfied, deep down inside, like a

E-----------------|------------------------|--------------------------

B-----------------|------------------------|--------------------------

G-----------------|-5-----5--------5-----5-|-------------5-----5------

D-2-2-2-2-2-2-2-2-|-5--5--5--5--5--5--5--5-|-5--5--5--5--5--5--5--5---

A-0-0-0-0-0-0-0-0-|-3--3--3--3--3--3--3--3-|-3--3--3--3--3--3--3--3---

E-----------------|------------------------|--------------------------

hand in a velvet glove. Seems like a touch,

E-----------------|------------------------|--------------------------

B-----------------|------------------------|--------------------------

G-7---7---7---7---|-----------7------7-----|--------------------------

D-7---7---7-7-7---|--------7--7------7-----|---2--2----------2--5-----

A-5-5-5---5-5-5---|--------5--5------5-----|---2--2----------2--5-----

E-----------------|------------------------|---0--0----------0--3-----

a touch too much. Seems like a

E-----------------|------------------------|--------------------------

B-----------------|------------------------|----------3----3--3-------

G-----------------|-2----2-2--2-----2------|----------2----2--2-------

D---5-5-5--5---5--|-2----2-2--2-----2--5---|----------0----0--0-------

A---5-5-5--5---5--|-0----0-0--0-----0--3---|---2--0-------------------

E---3-3-3--3---3--|------------------------|--------------------------

Touch, a touch too much.

E-----------------|------------------------|--------------------------

B-----------------|------------------------|--------------------------

G-----------------|------------------------|--2----2----2----2--------

D-2---2---2---2-5-|--5-5-5---5----5--------|--2----2----2----2---5----

A-2---2---2---2-5-|--5-5-5---5----5--------|--0----0----0----0---3----

E-0---0---0---0-3-|--3-3-3---3----3--------|--------------------------

Too much for my body, too much for my brain

E-----------------|---------------------------------------------------

B---------3--3--3-|------------------------|--------------------------

G---------2--2--2-|------------------------|--------------------------

D---------0--0--0-|--2----2----2----2---5--|---5---5----5----5---5----

A---2--0----------|--2----2----2----2---5--|---5---5----5----5---5----

E-----------------|--0----0----0----0---3--|---3---3----3----3---3----

This damn woman's gonna drive me insane. She got a touch,

E---------------------|-----------------------|-----------------------

B---------------------|-----------3---3--3--3-|-----------------------

G--2----2----2---2--5-|-----5--5--2---2--2--2-|-----------------------

D--2----2----2---2--5-|-----5--5--0---0--0--0-|--------2--2---2--5----

A--0----0----0---0--3-|-----3--3--------------|--------2--2---2--5----

E---------------------|-----------------------|--------0--0---0--3----

1.

a touch too much.

E-----------|-----------------|-2-----2-----2---|---------------------

B-----------|-----------------|-3-----3-----3---|---------------------

G-----------|-2-2-2-2-2-2-2-2-|-2-2-2-2-2-2-2-2-|-9-------------------

D-----------|-2-2-2-2-2-2-2-2-|-0-2-2-0-2-2-0-2-|-9-9-9-9-9-9-9-9-----

A-----------|-0-0-0-0-0-0-0-0-|---0-0---0-0---0-|-7-7-7-7-7-7-7-7-----

E-----------|-----------------|-----------------|-0-0-0-0-0-0-0-0-----

2.

E-----------------|-----------------|----------------

B-----------------|-----------------|----------------

G-------9-9-9-9-\-|-9-9-9-9-9-9-9-9-|-9-9-9-9-9-9-9--

D-9-9-9-9-9-9-9-\-|-9-9-9-9-9-9-9-9-|-9-9-9-9-9-9-9--

A-7-7-7-7-7-7-7-\-|-7-7-7-7-7-7-7-7-|-7-7-7-7-7-7-7--

E-0-0-0-0-0-0-0-\-|-0-0-0-0-0-0-0-0-|-0--------------

C5

E-----------12-------12--12-------12-|-12-------12--12----------12--------

B--------12----------12--12-------12-|-12-------12--12-------12-----------

G--14(16)------14(16)-------14(16)---|----14(16)-------14(16)------14(16)-

D------------------------------------|------------------------------------

A------------------------------------|------------------------------------

E------------------------------------|------------------------------------

A5

E-12--12-----------12-------12-14(15)-|-14--12-------------------

B-12--12--------12----------12-14(15)-|-14--12--14---------------

G--------14(16)-------14(16)----------|---------14--12^^^-14--12-

D-------------------------------------|--------------------------

A-------------------------------------|--------------------------

E-------------------------------------|--------------------------

C5

E-------12--12---------12-12--------12-|-12--------12-12--------12-12--

B-------12--12--15(17)-------15(17)----|----15(17)-------15(17)--------

G-14(16)-------------------------------|-------------------------------

D--------------------------------------|-------------------------------

A--------------------------------------|-------------------------------

E--------------------------------------|-------------------------------

D5 E5 G5 A5

E--15-15-15-12-15-15-15-12-|-15-15-12-15\\\\\\\--|---------------------

B--------------------------|---------------------|---------------------

G--------------------------|---------------------|---------------------

D--------------------------|---------------------|-----------------2---

A--------------------------|---------------------|-2---------------0---

E--------------------------|---------------------|-0----3^^^^^^^-------

B5 C5 A5 E5 Seems like a

E-----------------|-------------------|-------------------

B-----------------|-------------------|-------------------

G-----------------|-------------------|-------------------

D------------4----|--5-----2----------|-------------------

A---0-----0--2----|--3-----0------2---|-------------------

E------3----------|---------------0---|-------------------

Touch, touch too much. U know it's much 2 much, much too

E------------------|-------------------------|------------------------

B------------------|-------------------------|------------------------

G------------------|-------------------------|----------------------7-

D-2-2-2-2-2-2-2-5--|-5--5--5--5--5--5--5--5--|-7--7--7--7--7--7--7----

A------------------|-------------------------|----------------------5-

E-0-0-0-0-0-0-0-3--|-3--3--3--3--3--3--3--3--|-5--5--5--5--5--5--5----

much, I really wanna feel, yeah, touch 2 much. Girl U know you're

E-------------------|------------------------|----------------------------

B-------------------|------------------------|----------------------------

G-7-7-7-7-7-7-7-7---|------------------------|----------------------------

D-------------------|-2--2--2--2--2--2--2--5-|-5--5--5--5--5--5--5--5-----

A-5-5-5-5-5-5-5-5---|------------------------|----------------------------

E-------------------|-0--0--0--0--0--0--0--3-|-3--3--3--3--3--3--3--3-----

############################# Another version #########################

Touch Too Much

Intro:

E|--------------------------|--------------------------|

B|--------------------------|--------------------------|

G|--9-----------------------|--9-----------------------|

D|--9-----------------------|--9-----------------------|

A|--7--7--7--7--7--7--7--7--|--7--7--7--7--7--7--7--7--|

E|--0--0--0--0--0--0--0--0--|--0--0--0--0--0--0--0--0--|

it was

|--------------------------|--------------------------|

|--------------------------|--------------------------|

|--9-----------------------|--9-----------------------|

|--9-----------------------|--9-----------------------|

|--7--7--7--7--7--7--7--7--|--7--7--7--7--7--7--7--7--|

|--0--0--0--0--0--0--0--0--|--0--0--0--0--0--0--0--0--|

one...

|--------------------------|--------------------------|

|--------------------------|--5-----------------------|

|--9-----------------------|--5-----------------------|

|--9-----------------------|--5--5--5--5--5--5--5-----|

|--7--7--7--7--7--7--7--7--|--3--3--3--3--3--3--3--0--|

|--0--0--0--0--0--0--0--0--|--------------------------|

|----------------------------------|----------------------------------|

|----------------------------------|--15--14--14--15--14--14--14--14--|

|--14------------------------------|--14--14--14--14--14--14--14--14--|

|--14--14--14--14--14--14--14--14--|--14--14--14--14--14--14--14--14--|

|--0---0---0---0---0---0---0---0---|--0---0---0---0---0---0---0---0---|

|----------------------------------|----------------------------------|

she was...

|--------------------------|--------------------------|

|--------------------------|--5-----------------------|

|--9-----------------------|--5-----------------------|

|--9-----------------------|--5--5--5--5--5--5--5-----|

|--7--7--7--7--7--7--7--7--|--3--3--3--3--3--3--3--0--|

|--0--0--0--0--0--0--0--0--|--------------------------|

|----------------------------------|----------------------------------|

|----------------------------------|--15--14--14--15--14--14--14--14--|

|--14------------------------------|--14--14--14--14--14--14--14--14--|

|--14--14--14--14--14--14--14--14--|--14--14--14--14--14--14--14--14--|

|--0---0---0---0---0---0---0---0---|--0---0---0---0---0---0---0---0---|

|----------------------------------|----------------------------------|

wasn't the first...

|--------------------------|--------------------------|

|--------------------------|--------------------------|

|--5--------------5-----5--|--------------------------|

|--5--5--5--5--5--5--5--5--|--5--5--5--5--5--5--5-----|

|--3--3--3--3--3--3--3--3--|--3--3--3--3--3--3--3--0--|

|--------------------------|--------------------------|

|--------------------------|--------------------------|

|--------------------------|--------------------------|

|--2--------------2-----2--|--------------------------|

|--2--2--2--2--2--2--2--2--|--2--2--2--2--2--2--2--2--|

|--0--0--0--0--0--0--0--0--|--0--0--0--0--0--0--0--0--|

|--------------------------|--------------------------|

|--------------------------|--------------------------|------------------------|

|--------------------------|--------------------------|------------------------|

|--5-----5--------5-----5--|--------------5-----5-----|--7-----7------7-----7--|

|--5--5--5--5--5--5--5--5--|--5--5--5--5--5--5--5--5--|--7-----7------7--7--7--|

|--3--3--3--3--3--3--3--3--|--3--3--3--3--3--3--3--3--|--5--5--5------5--5--5--|

|--------------------------|--------------------------|------------------------|

Chorus: seems like a touch

|---------------------|----------------------|-----------------------|

|---------------------|----------------------|-----------------------|

|-----------7----7----|----------------------|-----------------------|

|--------7--7----7----|------2--2------2--5--|----5--5----5--5--5----|

|--------5--5----5----|------2--2------2--5--|----5--5----5--5--5----|

|---------------------|------0--0------0--3--|----3--3----3--3--3----|

|------------------------|-----------------------|-----------------------|

|------------------------|----------3----3--3----|-----------------------|

|--2----2----2--2--2-----|----------2----2--2----|-----------------------|

|--2----2----2--2--2--5--|----------0----0--0----|--2----2----2----2--5--|

|--0----0----0--0--0--3--|----2--0---------------|--2----2----2----2--5--|

|------------------------|-----------------------|--0----0----0----0--3--|

|-----------------------|-----------------------|-----------------------|

|-----------------------|-----------------------|----------3----3--3----|

|-----------------------|--2----2----2----2-----|----------2----2--2----|

|----5--5--5--5----5----|--2----2----2----2--5--|----------0----0--0----|

|----5--5--5--5----5----|--0----0----0----0--3--|----2--0---------------|

|----3--3--3--3----3----|-----------------------|-----------------------|

too much for...

|-----------------------|-----------------------|-----------------------|

|-----------------------|-----------------------|-----------------------|

|-----------------------|-----------------------|--2----2----2----2-----|

|--2----2----2----2--5--|----5--5----5----5--5--|--2----2----2----2--5--|

|--2----2----2----2--5--|----5--5----5----5--5--|--0----0----0----0--3--|

|--0----0----0----0--3--|----3--3----3----3--3--|-----------------------|

a touch too ...

|-----------------------|----------------------|------------------|

|----------3----3--3----|----------------------|------------------|

|----5--5--2----2--2----|----------------------|------------------|

|----5--5--0----0--0----|------2--2------2--5--|------------------|

|----3--3---------------|------2--2------2--5--|------------------|

|-----------------------|------0--0------0--3--|------------------|

after 1st chorus: to verse:

|--------------------------|--2--------2--------2-----|

|--------------------------|--3--------3--------3-----|

|--2--2--2--2--2--2--2--2--|--2--2--2--2--2--2--2--2--|

|--2--2--2--2--2--2--2--2--|--0--2--2--0--2--2--0--2--|

|--0--0--0--0--0--0--0--0--|-----0--0-----0--0-----0--|

|--------------------------|--------------------------|

after 2nd chorus:

|--------------------------|--------------------------|

|--------------------------|--------------------------|

|--9-----------------------|--------------9--9--9--9--|

|--9--9--9--9--9--9--9--9--|--9--9--9--9--9--9--9--9--|

|--7--7--7--7--7--7--7--7--|--7--7--7--7--7--7--7--7--|

|--0--0--0--0--0--0--0--0--|--0--0--0--0--0--0--0--0--|

C5

|--------------------------|--------------------------|

|--------------------------|--------------------------|

|--5--5--5--5--5--5--5--5--|--5--5--5--5--5--5--5--5--|

|--5--5--5--5--5--5--5--5--|--5--5--5--5--5--5--5--5--|

|--3--3--3--3--3--3--3--3--|--3--3--3--3--3--3--3--3--|

|--------------------------|--------------------------|

A5

|--------------------------|--------------------------|

|--------------------------|--------------------------|

|--2--2--2--2--2--2--2--2--|--2--2--2--2--2--2--2--2--|

|--2--2--2--2--2--2--2--2--|--2--2--2--2--2--2--2--2--|

|--0--0--0--0--0--0--0--0--|--0--0--0--0--0--0--0--0--|

|--------------------------|--------------------------|

C5

|--------------------------|--------------------------|

|--------------------------|--------------------------|

|--5--5--5--5--5--5--5--5--|--5--5--5--5--5--5--5--5--|

|--5--5--5--5--5--5--5--5--|--5--5--5--5--5--5--5--5--|

|--3--3--3--3--3--3--3--3--|--3--3--3--3--3--3--3--3--|

|--------------------------|--------------------------|

D5

|--------------------------|--------------------------|---------------------|

|--3--3--3--3--3--3--3--3--|--3--3--3--3--3--3--3--3--|---------------------|

|--2--2--2--2--2--2--2--2--|--2--2--2--2--2--2--2--2--|---------------------|

|--0--0--0--0--0--0--0--0--|--0--0--0--0--0--0--0--0--|----------------2----|

|--------------------------|--------------------------|--2-------------0----|

|--------------------------|--------------------------|--0------3-----------|

|----------------------|---------------------|------------------|

|----------------------|---------------------|------------------|

|----------------------|---------------------|------------------|

|---------------4------|--5------2-----------|------------------|

|------0-----0--2------|--3------0------2----|------------------|

|---------3------------|----------------0----|------------------|

|--------------------------|--------------------------|

|--------------------------|--------------------------|

|--------------------------|--------------------------|

|--------------------------|--------------------------|

|--2--2--2--2--2--2--2--5--|--5--5--5--5--5--5--5--5--|

|--0--0--0--0--0--0--0--3--|--3--3--3--3--3--3--3--3--|

|--------------------------|--------------------------|

|--------------------------|--------------------------|

|--------------------------|--------------------------|

|-----------------------7--|--7--7--7--7--7--7--7--7--|

|--7--7--7--7--7--7--7--5--|--5--5--5--5--5--5--5--5--|

|--5--5--5--5--5--5--5-----|--------------------------|

Tablature by Clemens Fehlow.

Get this song at:  amazon.com

Share your thoughts

0 Comments found