Ac Dc

Ac Dc - Touch Too Much Bonfire Volts Version guitar tab

Touch Too Much (Bonfire Volts version)

Tabbed by: David McDaniel

Intro & chorus:

e]------------------2--------------------3-2

B]------------------3--------------------3-3

G]------------------2--------------------0-2 (repeat a lot)

D]-0-2-0-2-0-2-0-0------0-2-0-2-0-2-0-0--0-0

E]-0-0-0-0-0-0-0-0------0-0-0-0-0-0-0-0-----

A]------------------------------------------

Verse:

e]-----------2------------2

B]-----------3------------3

G]-----------2------------2

D]-2-2-2--2--0--2-2-2--2--0 (repeat a lot)

A]-0-0-0--0-----0-0-0--0---

E]-------------------------

other chorus part, just before "she had a touch, touch too much"

"promise you everything, down on my bended knees".....

e]2------------2------------------------------------

B]3------------3------------------------------------

G]2------------2-----------2------------------------

D]0------------0-----------2-----------------0-2-0-2

A]0------------0-----------0-----------------0-0-0-0

E]--------------------------------------------------

Get this song at:  amazon.com sheetmusicplus.com

Share your thoughts

0 Comments found