Ac Dc

Ac Dc - Touch To Much guitar tab

Intro:

E|--------------------------|--------------------------|

B|--------------------------|--------------------------|

G|--9-----------------------|--9-----------------------|

D|--9-----------------------|--9-----------------------|

A|--7--7--7--7--7--7--7--7--|--7--7--7--7--7--7--7--7--|

E|--0--0--0--0--0--0--0--0--|--0--0--0--0--0--0--0--0--|

it was

|--------------------------|--------------------------|

|--------------------------|--------------------------|

|--9-----------------------|--9-----------------------|

|--9-----------------------|--9-----------------------|

|--7--7--7--7--7--7--7--7--|--7--7--7--7--7--7--7--7--|

|--0--0--0--0--0--0--0--0--|--0--0--0--0--0--0--0--0--|

one...

|--------------------------|--------------------------|

|--------------------------|--5-----------------------|

|--9-----------------------|--5-----------------------|

|--9-----------------------|--5--5--5--5--5--5--5-----|

|--7--7--7--7--7--7--7--7--|--3--3--3--3--3--3--3--0--|

|--0--0--0--0--0--0--0--0--|--------------------------|

|----------------------------------|----------------------------------|

|----------------------------------|--15--14--14--15--14--14--14--14--|

|--14------------------------------|--14--14--14--14--14--14--14--14--|

|--14--14--14--14--14--14--14--14--|--14--14--14--14--14--14--14--14--|

|--0---0---0---0---0---0---0---0---|--0---0---0---0---0---0---0---0---|

|----------------------------------|----------------------------------|

she was...

|--------------------------|--------------------------|

|--------------------------|--5-----------------------|

|--9-----------------------|--5-----------------------|

|--9-----------------------|--5--5--5--5--5--5--5-----|

|--7--7--7--7--7--7--7--7--|--3--3--3--3--3--3--3--0--|

|--0--0--0--0--0--0--0--0--|--------------------------|

|----------------------------------|----------------------------------|

|----------------------------------|--15--14--14--15--14--14--14--14--|

|--14------------------------------|--14--14--14--14--14--14--14--14--|

|--14--14--14--14--14--14--14--14--|--14--14--14--14--14--14--14--14--|

|--0---0---0---0---0---0---0---0---|--0---0---0---0---0---0---0---0---|

|----------------------------------|----------------------------------|

wasn't the first...

|--------------------------|--------------------------|

|--------------------------|--------------------------|

|--5--------------5-----5--|--------------------------|

|--5--5--5--5--5--5--5--5--|--5--5--5--5--5--5--5-----|

|--3--3--3--3--3--3--3--3--|--3--3--3--3--3--3--3--0--|

|--------------------------|--------------------------|

|--------------------------|--------------------------|

|--------------------------|--------------------------|

|--2--------------2-----2--|--------------------------|

|--2--2--2--2--2--2--2--2--|--2--2--2--2--2--2--2--2--|

|--0--0--0--0--0--0--0--0--|--0--0--0--0--0--0--0--0--|

|--------------------------|--------------------------|

|--------------------------|--------------------------|------------------------|

|--------------------------|--------------------------|------------------------|

|--5-----5--------5-----5--|--------------5-----5-----|--7-----7------7-----7--|

|--5--5--5--5--5--5--5--5--|--5--5--5--5--5--5--5--5--|--7-----7------7--7--7--|

|--3--3--3--3--3--3--3--3--|--3--3--3--3--3--3--3--3--|--5--5--5------5--5--5--|

|--------------------------|--------------------------|------------------------|

Chorus: seems like a touch

|---------------------|----------------------|-----------------------|

|---------------------|----------------------|-----------------------|

|-----------7----7----|----------------------|-----------------------|

|--------7--7----7----|------2--2------2--5--|----5--5----5--5--5----|

|--------5--5----5----|------2--2------2--5--|----5--5----5--5--5----|

|---------------------|------0--0------0--3--|----3--3----3--3--3----|

|------------------------|-----------------------|-----------------------|

|------------------------|----------3----3--3----|-----------------------|

|--2----2----2--2--2-----|----------2----2--2----|-----------------------|

|--2----2----2--2--2--5--|----------0----0--0----|--2----2----2----2--5--|

|--0----0----0--0--0--3--|----2--0---------------|--2----2----2----2--5--|

|------------------------|-----------------------|--0----0----0----0--3--|

|-----------------------|-----------------------|-----------------------|

|-----------------------|-----------------------|----------3----3--3----|

|-----------------------|--2----2----2----2-----|----------2----2--2----|

|----5--5--5--5----5----|--2----2----2----2--5--|----------0----0--0----|

|----5--5--5--5----5----|--0----0----0----0--3--|----2--0---------------|

|----3--3--3--3----3----|-----------------------|-----------------------|

too much for...

|-----------------------|-----------------------|-----------------------|

|-----------------------|-----------------------|-----------------------|

|-----------------------|-----------------------|--2----2----2----2-----|

|--2----2----2----2--5--|----5--5----5----5--5--|--2----2----2----2--5--|

|--2----2----2----2--5--|----5--5----5----5--5--|--0----0----0----0--3--|

|--0----0----0----0--3--|----3--3----3----3--3--|-----------------------|

a touch too ...

|-----------------------|----------------------|------------------|

|----------3----3--3----|----------------------|------------------|

|----5--5--2----2--2----|----------------------|------------------|

|----5--5--0----0--0----|------2--2------2--5--|------------------|

|----3--3---------------|------2--2------2--5--|------------------|

|-----------------------|------0--0------0--3--|------------------|

after 1st chorus: to verse:

|--------------------------|--2--------2--------2-----|

|--------------------------|--3--------3--------3-----|

|--2--2--2--2--2--2--2--2--|--2--2--2--2--2--2--2--2--|

|--2--2--2--2--2--2--2--2--|--0--2--2--0--2--2--0--2--|

|--0--0--0--0--0--0--0--0--|-----0--0-----0--0-----0--|

|--------------------------|--------------------------|

after 2nd chorus:

|--------------------------|--------------------------|

|--------------------------|--------------------------|

|--9-----------------------|--------------9--9--9--9--|

|--9--9--9--9--9--9--9--9--|--9--9--9--9--9--9--9--9--|

|--7--7--7--7--7--7--7--7--|--7--7--7--7--7--7--7--7--|

|--0--0--0--0--0--0--0--0--|--0--0--0--0--0--0--0--0--|

C5

|--------------------------|--------------------------|

|--------------------------|--------------------------|

|--5--5--5--5--5--5--5--5--|--5--5--5--5--5--5--5--5--|

|--5--5--5--5--5--5--5--5--|--5--5--5--5--5--5--5--5--|

|--3--3--3--3--3--3--3--3--|--3--3--3--3--3--3--3--3--|

|--------------------------|--------------------------|

A5

|--------------------------|--------------------------|

|--------------------------|--------------------------|

|--2--2--2--2--2--2--2--2--|--2--2--2--2--2--2--2--2--|

|--2--2--2--2--2--2--2--2--|--2--2--2--2--2--2--2--2--|

|--0--0--0--0--0--0--0--0--|--0--0--0--0--0--0--0--0--|

|--------------------------|--------------------------|

C5

|--------------------------|--------------------------|

|--------------------------|--------------------------|

|--5--5--5--5--5--5--5--5--|--5--5--5--5--5--5--5--5--|

|--5--5--5--5--5--5--5--5--|--5--5--5--5--5--5--5--5--|

|--3--3--3--3--3--3--3--3--|--3--3--3--3--3--3--3--3--|

|--------------------------|--------------------------|

D5

|--------------------------|--------------------------|---------------------|

|--3--3--3--3--3--3--3--3--|--3--3--3--3--3--3--3--3--|---------------------|

|--2--2--2--2--2--2--2--2--|--2--2--2--2--2--2--2--2--|---------------------|

|--0--0--0--0--0--0--0--0--|--0--0--0--0--0--0--0--0--|----------------2----|

|--------------------------|--------------------------|--2-------------0----|

|--------------------------|--------------------------|--0------3-----------|

|----------------------|---------------------|------------------|

|----------------------|---------------------|------------------|

|----------------------|---------------------|------------------|

|---------------4------|--5------2-----------|------------------|

|------0-----0--2------|--3------0------2----|------------------|

|---------3------------|----------------0----|------------------|

|--------------------------|--------------------------|

|--------------------------|--------------------------|

|--------------------------|--------------------------|

|--------------------------|--------------------------|

|--2--2--2--2--2--2--2--5--|--5--5--5--5--5--5--5--5--|

|--0--0--0--0--0--0--0--3--|--3--3--3--3--3--3--3--3--|

|--------------------------|--------------------------|

|--------------------------|--------------------------|

|--------------------------|--------------------------|

|-----------------------7--|--7--7--7--7--7--7--7--7--|

|--7--7--7--7--7--7--7--5--|--5--5--5--5--5--5--5--5--|

|--5--5--5--5--5--5--5-----|--------------------------|

Get this song at:  amazon.com sheetmusicplus.com

Share your thoughts

0 Comments found