Ac Dc

Ac Dc - Thunderstuct guitar tab

p: Pull off

h: hammer on

s: slide

v: vibrato

x: muted string

b: bend

Gtr 1 (Angus):

------------------------------------------------------------------------------

-4p0-7p0-4p0-7p0-4p0-7p0-4p0-7p0---5p0-8p0-5p0-8p0-5p0-8p0-5p0-8p0------------

------------------------------------------------------------------------------

------------------------------------------------------------------------------x2

------------------------------------------------------------------------------

------------------------------------------------------------------------------

Gtr 1:

------------------------------------------------------------------------------

-12p0-10p0-9p0-10p0-9p0-7p0-9p0-7p0-5p0-4p0-5p0-4p0-5p0-4p0-5p0-4p0-----------

------------------------------------------------------------------------------

------------------------------------------------------------------------------x22

------------------------------------------------------------------------------

------------------------------------------------------------------------------

In the 10th play Malcom Enters with this:

Gtr 2 (Malcom):

------------------------------------------------------------------------------

------------------------------------------------------------------------------

-4-4-4-4-4-4-4-4-4-4-4-4-4----------------------------------------------------

-4-4-4-4-4-4-4-4-4-4-4-4-4----------------------------------------------------x12

-2-2-2-2-2-2-2-2-2-2-2-2-2----------------------------------------------------

------------------------------------------------------------------------------

Then :

Gtr 1:

|-----------------------------------------------------------------------------

|-----------2-2---------------------------------------------------------------

|--4--4-----2-2---------------------------------------------------------------

|--4--4--2--2-2--2------------------------------------------------------------x4

|--2--2--2--0-0--2------------------------------------------------------------

|--------0-------0------------------------------------------------------------

|

|Gtr 2

|2-2-2-2-2-2-2-2-2-2-2-2-2----------------------------------------------------

|2-2-2-2-2-2-2-2-2-2-2-2-2----------------------------------------------------

|4-4-4-4-4-4-4-4-4-4-4-4-4----------------------------------------------------

|4-4-4-4-4-4-4-4-4-4-4-4-4----------------------------------------------------x4

|2-2-2-2-2-2-2-2-2-2-2-2-2----------------------------------------------------

|-----------------------------------------------------------------------------

Verse:

|-----------------------------------------------------------------------------

|-----------------------------------------------------------------------------

|-4---4---4---4--4--4--4--4--4-4-4-4-4-4--------------------------------------

|-4---4---4---4—-4--4--4--4--4-4-4-4-4-4--------------------------------------

|-2---2---2---2—-2--2--2--2--2-2-2-2-2-2--------------------------------------

|-----------------------------------------------------------------------------

|

|Gtr 2

|2-2-2-2-2-2-2-2-2-2-2-2-2----------------------------------------------------

|2-2-2-2-2-2-2-2-2-2-2-2-2----------------------------------------------------

|4-4-4-4-4-4-4-4-4-4-4-4-4----------------------------------------------------

|4-4-4-4-4-4-4-4-4-4-4-4-4----------------------------------------------------x4

|2-2-2-2-2-2-2-2-2-2-2-2-2----------------------------------------------------

|-----------------------------------------------------------------------------

Verse 2:

Both Gtrs:

------------------------------------------------------------------------------

-2-----2--------2-----2-------2-----2------2-----2----------------------------

-2--4--2--------2--4--2-------2--4--2------2--4--2----------------------------

-2--4--2--2-----2--4--2--2----2--4--2--2---2--4--2--2-------------------------

-0--2--0--2-----0--2--0--2----0--2--0--2---0--2--0--2-------------------------

----------0--------------0-------------0------------0-------------------------

Chorus:

Both Gtrs:

-------------------------------------------

----2--------2------------2--------2-------

-4--2--------2---------4--2--------2-------

-4--2--2--2--2--2------4--2--2--2--2--2---- x2

-2--0--2--2--0--2------2--0--2--2--0--2----

-------0--0-----0------------0--0-----0----

Pre- Solo:

Gtr 1:

------------------------------------------------------------------------------

-12p0-10p0-9p0-10p0-9p0-7p0-9p0-7p0-5p0-4p0-5p0-4p0-5p0-4p0-5p0-4p0-----------

------------------------------------------------------------------------------

------------------------------------------------------------------------------x4

------------------------------------------------------------------------------

------------------------------------------------------------------------------

Gtr 2:

Gtr 1:

------------------------------------------------------------------------------

------------------------2----------------2------------------------------------

-4----------4--------4--2-------------4--2------------------------------------

-4----------4--------4--2--2----------4--2--2---------------------------------

-2----------2--------2--0--2----------2--0--2---------------------------------

---------------------------0----------------0---------------------------------

Solo:

------------------------------------------------------------------------------

-----------------7-10---------------------------------------------------------

-9b-----------9b------9-7-9-7-------7-9vv------7-10-9-7-9-7-10-7-9-10-7-------

----9-----7-9—----------------9—7h9--------9b---------------------------9b-9-7

------7-9---------------------------------------------------------------------

------------------------------------------------------------------------------

-14b--12-12h15p12--11-11h14p11------------------------------------------------

-----------------------------------12-15-12----12-14b-14b---------------------

--------------------------------13----------13--------------------------------

------------------------------------------------------------------------------

------------------------------------------------------------------------------

------------------------------------------------------------------------------

Bit after solo:

Gtr 1:

|-----------------------------------------------------------------------------

|-----------------------------------------------------------------------------

|4-2-----7---7-9-7-9b-------4-2-----7---7-9-7-9b----4-2----7---7-9-7-9b-------

|4-2---9---9----------9-----4-2---9---9----------9--4-2--9---9----------9-----

|2-0------------------------2-0---------------------2-0-----------------------

|-----------------------------------------------------------------------------

|Gtr 2:

|-----------------------------------------------------------------------------

|-----------------------------------------------------------------------------

|4-2-----------------------4-2-----------------------4-2----------------------

|4-2-----------------------4-2-----------------------4-2----------------------

|2-0-----------------------2-0-----------------------2-0----------------------

|-----------------------------------------------------------------------------

Gtr 1:

|-----------------------------------------------------------------------------

|-----------------------------------------------------------------------------

|4-2--------------------------------------------------------------------------

|4-2----7---7-9-7-9b----------------------------------------------------------

|2-0--9---9----------9--------------------------------------------------------

|-----------------------------------------------------------------------------

|

|Gtr 2:

|-----------------------------------------------------------------------------

|-----------------------------------------------------------------------------

|4-2--------------------------------------------------------------------------

|4-2--------------------------------------------------------------------------

|2-0--------------------------------------------------------------------------

|-----------------------------------------------------------------------------

Gtr 1:

------------------------------------------------------------------------------

-12p0-10p0-9p0-10p0-9p0-7p0-9p0-7p0-5p0-4p0-5p0-4p0-5p0-4p0-5p0-4p0-----------

------------------------------------------------------------------------------

------------------------------------------------------------------------------

------------------------------------------------------------------------------

------------------------------------------------------------------------------

Chorus:

Both Gtrs:

-------------------------------------------

----2--------2------------2--------2-------

-4--2--------2---------4--2--------2-------

-4--2--2--2--2--2------4--2--2--2--2--2---- x2

-2--0--2--2--0--2------2--0--2--2--0--2----

-------0--0-----0------------0--0-----0----

Then:

Gtr 1:

------------------------------------------------------------------------------

-12p0-10p0-9p0-10p0-9p0-7p0-9p0-7p0-5p0-4p0-5p0-4p0-5p0-4p0-5p0-4p0-----------

------------------------------------------------------------------------------

------------------------------------------------------------------------------x4

------------------------------------------------------------------------------

------------------------------------------------------------------------------

Gtr 2:

------------------------------------------------------------------------------

----2-------------2-------------2-------------2-------------------------------

-4--2----------4--2----------4--2----------4--2-------------------------------

-4--2--2--2----4--2--2--2----4--2--2--2----4--2--2--2-------------------------

-2--0--2--2----2--0--2--2----2--0--2--2----2--0--2--2-------------------------

-------0--0----------0--0----------0--0----------0--0-------------------------

Then:

Gtr 2:

|--------------------

|---2--------2-------

|4--2--------2-------

|4--2--2--2--2--2----

|2--0--2--2--0--2----

|------0--0-----0----

|

|Gtr 1:

|----10-12—12b-----------------------------

|-12-----------12vv------------------------

|------------------------------------------

|------------------------------------------

|------------------------------------------

|------------------------------------------

Gtr 2:

|--------------------

|---2--------2-------

|4--2--------2-------

|4--2--2--2--2--2----

|2--0--2--2--0--2----

|------0--0-----0----

|

|Gtr 1:

|-----12b--12-10-12------------------------

|------------------------------------------

|------------------------------------------

|------------------------------------------

|------------------------------------------

|------------------------------------------

Gtr 2:

|--------------------

|---2--------2-------

|4--2--------2-------

|4--2--2--2--2--2----

|2--0--2--2--0--2----

|------0--0-----0----

|

|Gtr 1:

|----15b-15-13----13-----------------------

|--------------15----15--13----13----------

|---------------------------14-------------

|------------------------------------------

|------------------------------------------

|------------------------------------------

Gtr 2:

|--------------------

|---2--------2-------

|4--2--------2-------

|4--2--2--2--2--2----

|2--0--2--2--0--2----

|------0--0-----0----

|

|Gtr 1:

|-----17-----17-----17-----17-----17-----17----

|-17b----17b----17b----17b----17b----17b----17b

|----------------------------------------------

|----------------------------------------------

|----------------------------------------------

|----------------------------------------------

Gtr 2:

|--------------------

|---2--------2-------

|4--2--------2-------

|4--2--2--2--2--2----

|2--0--2--2--0--2----

|------0--0-----0----

|

|Gtr 1:

|---------------------------17----17-----17----

|-----17p15-17p15----15-17b---17b----17b----17b

|--16-------------16---------------------------

|----------------------------------------------

|----------------------------------------------

|----------------------------------------------

Gtr 2:

|--------------------

|---2--------2-------

|4--2--------2-------

|4--2--2--2--2--2----

|2--0--2--2--0--2----

|------0--0-----0----

|

|Gtr 1:

|-19b-19b-17-19-------19-17-19b----------------

|---------------18-17--------------------------

|----------------------------------------------

|----------------------------------------------

|----------------------------------------------

|----------------------------------------------

Gtr 1:

|-----------------------------------------------------------------------------

|12p0-10p0-9p0-10p0-9p0-7p0-9p0-7p0-5p0-4p0-5p0-4p0-5p0-4p0-5p0-4p0-----------

|-----------------------------------------------------------------------------

|-----------------------------------------------------------------------------x4

|-----------------------------------------------------------------------------

|-----------------------------------------------------------------------------

|

|Gtr 2:

|-----------------------------------------------------------------------------

|-----------------------------------------------------------------------------

|-4---------------4--------------4--------------4-----------------------------

|-4---------------4--------------4--------------4-----------------------------

|-2---------------2--------------2--------------2-----------------------------

|-----------------------------------------------------------------------------

Get this song at:  amazon.com sheetmusicplus.com

Share your thoughts

0 Comments found