Ac Dc

Ac Dc - This Means War guitar tab

Tuning: Standard

e---------3----3-------|

B---------3----3-------|

G---------2----0-------|

D----2----0----0---2---|

A----2---------2---2---|

E----0---------3---0---|

e----------------------|-----------------|

B----------------------|-----------------|

G----------------------|-----------------|

D---5^0-4^0-2^0--------|--0-2^0-4^0-5^0--|

A-0--------------------|-----------------|

E----------------------|-----------------|

e------------------------------------------------|

B------------------------------------------------|

G---2--------------------------------------------|

D---2--------------------------------------------|

A---0--------------------------------------------|

E------------------------------------------------|

e-----|-------------|

B-----|-------------|

G--2--|--2--2--2----|

D--2--|--2--2--2----|

A--0--|--0--0--0----|

E-----|-------------|

e---------2--3-----|--------------------|-------2--3--------|----------|

B---------3--3-----|--------------------|-------3--3--------|----2-----|

G---1-----2--0-----|----7----5-10--7----|---1---2--0--------|----2-----|

D---2-----0--0--2--|----7----5-10--7----|---2---0--0----2---|----2-----|

A---2-----------2--|----5----3--8--5----|---2-----------2---|----0-----|

E---0--------3--0--|--------------------|---0------3----0---|----------|

e------------------|--------------------|-------------------|

B---9~~----12---9~~|----7~~-5-10--7~~---|--7~~-7-12--7~~~---|

G---9~~-7--12---9~~|----7~~~5-10--7~~--x|/-7~~-7-12--7~~~---|

D-------7----------|-------------------x|/------------------|

A------------------|-------------------x|/------------------|

E------------------|--------------------|---------------0---|

Solo

e---------------------12-----12~~~-12---------------------------------------------------------|

B--------15b(17)~~-15-----15----------15-12----12---------------------------------------------|

G-------------------------------------------14---14-12-14-12-----------------x\---------------|

D--x\------------------------------------------------------------------------x\---------------|

A--x\------------------------------------------------------------------------x\---------------|

E--x\---------------------------------------------------------12~~\-/~~12b---x\---------------|

e-----------------------12----12--12-12b-|----------------------------|

B--15b(17)--15-12-12-15----15------------|----------------------------|

G----------------------------------------|----------------------------|

D----------------------------------------|---x\-----------------------|

A----------------------------------------|---x\-----------------------|

E----------------------------------------|0--whammy bar and scraping--|

There you go! Finally Ultimate Guitar has a This Means war

Tab by me!

Notation used

b-bend

(17)-ghost note

x\-pick scratching

~-vibrato

^-hammer on

done. :)

Get this song at:  amazon.com sheetmusicplus.com

Share your thoughts

0 Comments found