Ac Dc

Ac Dc - This House Is On Fire bass tab

AC/DC-This House Is On Fire

Flick Of The Switch (1983)

Transcribed by: playinbass1432

Email: playinbass1432@hotmail.com

Standard Tuning

Intro: (0:11)

G

G|-----------------|-----------------|-----------------|-----------------|

D|-----------------|-----------------|-----------------|-----------------|

A|-----------------|-----------------|-----------------|-----------------|

E|-3-3-3-3-3-3-3-3-|-3-3-3-3-3-3-3-3-|-3-3-3-3-3-3-3-3-|-3-3-3-3-3-3-3-3-|

G

G|-----------------|-----------------|-----------------|-----------------|

D|-----------------|-----------------|-----------------|-----------------|

A|-----------------|-----------------|-----------------|-----------------|

E|-3-3-3-3-3-3-3-3-|-3-3-3-3-3-3-3-3-|-3-3-3-3-3-3-3-3-|-3-3-3-3-3-3-1-2-|

Verse 1:

G

G|-----------------|-----------------|-----------------|-----------------|

D|-----------------|-----------------|-----------------|-----------------|

A|-----------------|-----------------|-----------------|-----------------|

E|-3-3-3-3-3-3-3-3-|-3-3-3-3-3-3-3-3-|-3-3-3-3-3-3-3-3-|-3-3-3-3-3-3-3-3-|

G

G|-----------------|-----------------|-----------------|-----------------|

D|-----------------|-----------------|-----------------|-----------2-3-2-|

A|-----------------|-----------------|-----------------|-----------------|

E|-3-3-3-3-3-3-3-3-|-3-3-3-3-3-3-3-3-|-3-3-3-3-3-3-3-3-|-3-3-3-3-3-------|

Pre Chorus 1:

D F A# F A# F

G|-----------------|-----------------|-----------------|-----------------|

D|-----------------|-----------------|-----------------|-----------------|

A|-5-5-5-5-5-5-4h5-|---5-5-4h5---3-1-|-----------------|-1-------1-------|

E|-----------------|-----------------|-3-1-1-1-1-1-1-1-|-----1-1-----1-1-|

Chorus 1:

G A# C G A# C

G|-----------------|-----------------|-----------------|-----------------|

D|-----------------|-----------------|-----------------|-----------------|

A|-----------------|-1-1-3-3---------|-----------------|-1-1-3-3---------|

E|-3-3-3-3-3-3-3-3-|-----------------|-3-3-3-3-3-3-3-3-|-----------------|

G A# C G A# C

G|-----------------|-----------------|-----------------|-----------------|

D|-----------------|-----------------|-----------------|-----------------|

A|-----------------|-1-1-3-3---------|-----------------|-1-1-3-3---------|

E|-3-3-3-3-3-3-3-3-|-----------------|-3-3-3-3-3-3-3-3-|-----------------|

Pre Verse 2:

G

G|-----------------|-----------------|-----------------|-----------------|

D|-----------------|-----------------|-----------------|-----------------|

A|-----------------|-----------------|-----------------|-----------------|

E|-3-3-3-3-3-3-3-3-|-3-3-3-3-3-3-3-3-|-3-3-3-3-3-3-3-3-|-3-3-3-3-3-0-1-2-|

Verse 2:

G

G|-----------------|-----------------|-----------------|-----------------|

D|-----------------|-----------------|-----------------|-----------------|

A|-----------------|-----------------|-----------------|-----------------|

E|-3-3-3-3-3-3-3-3-|-3-3-3-3-3-3-3-3-|-3-3-3-3-3-3-3-3-|-3-3-3-3-3-3-3-3-|

G

G|-----------------|-----------------|-----------------|-----------------|

D|-----------------|-----------------|-----------------|-----------------|

A|-----------------|-----------------|-----------------|---1-3-1-1-3-----|

E|-3-3-3-3-3-3-3-3-|-3-3-3-3-3-3-3-3-|-3-3-3-3-3-3-3-3-|-3---------------|

Pre Chorus 2:

D F A# F A#

G|-----------------|-----------------|-----------------|-----------------|

D|-----------------|-----------------|-----------------|-----------------|

A|-5-5-5-5-5-5-5-4h|-5---3-1---------|-----------------|-1-------1-------|

E|-----------------|---------3---3-3-|-1-1-1-1-1-1-1-1-|-----1-1-----1-1-|

Chorus 2:

G A# C G A# C

G|-----------------|-----------------|-----------------|-----------------|

D|-----------------|-------------2-3-|-----------------|-----------------|

A|-----------------|-1-1-3-3---------|-----------------|-1-1-3-3---------|

E|-3-3-3-3-3-3-3-3-|-----------------|-3-3-3-3-3-3-3-3-|-----------------|

G A# C G A# C

G|-----------------|-----------------|-----------------|-----------------|

D|-----------------|-----------------|-----------------|-----------------|

A|-----------------|-1-1-3-3---------|-----------------|-1-1-3-3---------|

E|-3-3-3-3-3-3-3-3-|-----------------|-3-3-3-3-3-3-3-3-|-----------------|

Bridge:

F D C A# G F

G|-----------------|-----------------|-----------------|-----------------|

D|-----------------|-----------------|-----------------|-----------------|

A|-8---8-8-8-8-8-8-|-8-8-8-8-8-8-8-7h|-8-8-8-8-8-8-4h5-|-----3-1---------|

E|-----------------|-----------------|-----------------|---------3---1-1-|

Guitar Solo:

G A# C G A# G

G|-----------------|-----------------|-----------------|-----------------|

D|-----------------|-----------------|-----------------|-----------------|

A|---------------1-|---------3-------|---------------1-|---------3-------|

E|-3-3-3-3-3-3-3---|-----------------|-3-3-3-3-3-3-3---|-----------------|

G A# C G F E

G|-----------------|-----------------|-----------------|-----------------|

D|-----------------|-----------------|-----------------|-3--------2------|

A|---------------1-|---------3-------|-----------------|-----------------|

E|-3-3-3-3-3-3-3---|-----------------|-3-3-3-3-3-3-3-3-|-----------------|

D F A# F A# F

G|-----------------|-----------------|-----------------|-----------------|

D|-----------------|-----------------|-----------------|-8-------8-------|

A|-5-5-5-5-5-5-5-5-|-5-5-5-5-5-5-5-7-|-8-8-8-8-8-8-8-8-|-----8-8-----8-8-|

E|-----------------|-----------------|-----------------|-----------------|

Chorus 3:

G A# C G A# C

G|-----------------|-----------------|-----------------|-----------------|

D|-----------------|-----------------|-----------------|-----------------|

A|-----------------|-1-1-3-3---------|-----------------|-1-1-3-3---------|

E|-3-3-3-3-3-3-3-3-|-------------1-2-|-3-3-3-3-3-3-3-3-|-----------------|

G A# C G A#

G|-----------------|-----------------|-----------------|-----------------|

D|-----------------|-----------------|-----------------|-------2-2-3-3-4-|

A|-----------------|-1-1-3-3---------|-----------------|-1-1-3-----------|

E|-3-3-3-3-3-3-3-3-|-----------------|-3-3-3-3-3-3-3-3-|-----------------|

G|-----------3b----|-----------------|

D|-5---5-3-----5-5-|-5-5-5-3---2-----|

A|---------5-------|-----------------|

E|-----------------|-----------------|

G A# C G A# C

G|-----------------|-----------------|-----------------|-----------------|

D|-----------------|-----------------|-----------------|-----------------|

A|-----------------|-1-1-3-3---------|-----------------|-1-1-3-3---------|

E|-3-3-3-3-3-3-3-3-|-----------------|-3-3-3-3-3-3-3-3-|-----------------|

Half Speed:

G A# C F

G|-----------------|-----------------|-----------------|-----------------|

D|-----------------|-----------------|-----------------|-----------------|

A|-----------------|-1-1-3-3---------|-----------------|-----------------|

E|-3-3-3-3-3-3-3-3-|-----------------|-----------------|-1---------------|

Free Time:

|------------------------------16th Notes-----------------------------|

G

G|-----------------|-----------------|-----------------|-----------------|

D|-----------------|-----------------|-----------------|-----------------|

A|-----------------|-----------------|-----------------|-----------------|

E|-3-3-3-3-3-3-3-3-|-3-3-3-3-3-3-3-3-|-3-3-3-3-3-3-3-3-|-3-3-3-3-3-3-3-3-|

G|-----------------|-----------------|

D|-----------------|-----------------|

A|-----------------|-----------------|

E|-----------------|-----------------|

Get this song at:  amazon.com sheetmusicplus.com

Share your thoughts

0 Comments found