Ac Dc

Ac Dc - Theres Gonna Be Some Rockin bass tab

AC/DC-There's Gonna Be Some Rockin'

Dirty Deeds Done Dirt Cheap (1976)

Transcribed by: playinbass1432

Email: playinbass1432@hotmail.com

Standard Tuning, play eighth notes with a triplet feel.

Pre Verse (Come in after Phil hits the snare drum)

D

G|-----------------|-----------------|-----------------|-----------------|

D|-----------------|-----------------|-----------------|-----------------|

A|-5-5-5-5-5-5-5-5-|-5-5-5-5-5-5-5-5-|-5-5-5-5-5-5-5-5-|-5-5-5-5-5-5-5-5-|

E|-----------------|-----------------|-----------------|-----------------|

Verse/Chorus

D

G|-----------------|-----------------|-----------------|-----------------|

D|-----------------|-----------------|-----------------|-----------------|

A|-5-5-5-5-5-5-5-5-|-5-5-5-5-5-5-5-5-|-5-5-5-5-5-5-5-5-|-5-5-5-5-5-5-5-5-|

E|-----------------|-----------------|-----------------|-----------------|

G D

G|-----------------|-----------------|-----------------|-----------------|

D|-----------------|-----------------|-----------------|-----------------|

A|-----------------|-----------------|-5-5-5-5-5-5-5-5-|-5-5-5-5-5-5-5-5-|

E|-3-3-3-3-3-3-3-3-|-3-3-3-3-3-3-3-3-|-----------------|-----------------|

A G D

G|-----------------|-----------------|-----------------|-----------------|

D|-----------------|-----------------|-----------------|-----------------|

A|-----------------|-----------------|-5-5-5-5-5-5-5-5-|-5-5-5-5-5-3--4--|

E|-5-5-5-5-5-5-5-5-|-3-3-3-3-3-3-3-3-|-----------------|-----------------|

D D D D E F F#

G|-----------------|-----------------|-----------------|-----------------|

D|-----------------|-----------------|-----------------|-----------------|

A|-5---------------|-5---------------|-5---------------|-5-5-------------|

E|-----------------|-----------------|-----------------|-----0-0-1-1-2-2-|

G D

G|-----------------|-----------------|-----------------|-----------------|

D|-----------------|-----------------|-----------------|-----------------|

A|-----------------|-----------------|-5-5-5-5-5-5-5-5-|-5-5-5-5-5-5-5-5-|

E|-3-3-3-3-3-3-3-3-|-3-3-3-3-3-3-3-3-|-----------------|-----------------|

A G D

G|-----------------|-----------------|-----------------|-----------------|

D|-----------------|-----------------|-----------------|-----------------|

A|-----------------|-----------------|-5-5-5-5-5-5-5-5-|-5-5-5-5-5-3-3-4-|

E|-5-5-5-5-5-5-5-5-|-3-3-3-3-3-3-3-3-|-----------------|-----------------|

Guitar Solo:

D

G|-----------------|-----------------|-----------------|-----------------|

D|-----------------|-----------------|-----------------|-----------------|

A|-5-5-5-5-5-5-5-5-|-5-5-5-5-5-5-5-5-|-5-5-5-5-5-5-5-5-|-5-5-5-5-5-5-5-5-|

E|-----------------|-----------------|-----------------|-----------------|

G D

G|-----------------|-----------------|-----------------|-----------------|

D|-----------------|-----------------|-----------------|-----------------|

A|-----------------|-----------------|-5-5-5-5-5-5-5-5-|-5-5-5-5-5-5-5-5-|

E|-3-3-3-3-3-3-3-3-|-3-3-3-3-3-3-3-3-|-----------------|-----------------|

A G D

G|-----------------|-----------------|-----------------|-----------------|

D|-----------------|-----------------|-----------------|-----------------|

A|-----------------|-----------------|-5-5-5-5-5-5-5-5-|-5-5-5-5-5-3--4--|

E|-5-5-5-5-5-5-5-5-|-3-3-3-3-3-3-3-3-|-----------------|-----------------|

Verse/Chorus

D D D D E F F#

G|-----------------|-----------------|-----------------|-----------------|

D|-----------------|-----------------|-----------------|-----------------|

A|-5---------------|-5---------------|-5---------------|-5-5-------------|

E|-----------------|-----------------|-----------------|-----0-0-1-1-2-2-|

G D

G|-----------------|-----------------|-----------------|-----------------|

D|-----------------|-----------------|-----------------|-----------------|

A|-----------------|-----------------|-5-5-5-5-5-5-5-5-|-5-5-5-5-5-5-5-5-|

E|-3-3-3-3-3-3-3-3-|-3-3-3-3-3-3-3-3-|-----------------|-----------------|

A G D

G|-----------------|-----------------|-----------------|-----------------|

D|-----------------|-----------------|-----------------|-----------------|

A|-----------------|-----------------|-5-5-5-5-5-5-5-5-|-5-5-5-5-5-3---4-|

E|-5-5-5-5-5-5-5-5-|-3-3-3-3-3-3-3-3-|-----------------|-----------------|

Chorus/2nd Guitar Solo:

D

G|-----------------|-----------------|-----------------|-----------------|

D|-----------------|-----------------|-----------------|-----------------|

A|-5-5-5-5-5-5-5-5-|-5-5-5-5-5-5-5-5-|-5-5-5-5-5-5-5-5-|-5-5-5-5-5-5-5-5-|

E|-----------------|-----------------|-----------------|-----------------|

G D

G|-----------------|-----------------|-----------------|-----------------|

D|-----------------|-----------------|-----------------|-----------------|

A|-----------------|-----------------|-5-5-5-5-5-5-5-5-|-5-5-5-5-5-5-5-5-|

E|-3-3-3-3-3-3-3-3-|-3-3-3-3-3-3-3-3-|-----------------|-----------------|

A G D

G|-----------------|-----------------|-----------------|-----------------|

D|-----------------|-----------------|-----------------|-----------------|

A|-----------------|-----------------|-5-5-5-5-5-5-5-5-|-5-5-5-5-5-3--4--|

E|-5-5-5-5-5-5-5-5-|-3-3-3-3-3-3-3-3-|-----------------|-----------------|

D

G|-----------------|-----------------|-----------------|-----------------|

D|-----------------|-----------------|-----------------|-----------------|

A|-5-5-5-5-5-5-5-5-|-5-5-5-5-5-5-5-5-|-5-5-5-5-5-5-5-5-|-5-5-5-5-5-5-5-5-|

E|-----------------|-----------------|-----------------|-----------------|

G D

G|-----------------|-----------------|-----------------|-----------------|

D|-----------------|-----------------|-----------------|-----------------|

A|-----------------|-----------------|-5-5-5-5-5-5-5-5-|-5-5-5-5-5-5-5-5-|

E|-3-3-3-3-3-3-3-3-|-3-3-3-3-3-3-3-3-|-----------------|-----------------|

A G D

G|-----------------|-----------------|-----------------|-----------------|

D|-----------------|-----------------|-----------------|-----------------|

A|-----------------|-----------------|-5-5-5-5-5-5-5-5-|-5-5-5-5-5-3---4-|

E|-5---5-5-5-5-5-5-|-3---3-3-3-3-3-3-|-----------------|-----------------|

Outro Chorus/Guitar Solo

D

G|-----------------|-----------------|-----------------|-----------------|

D|-----------------|-----------------|-----------------|-----------------|

A|-5-5-5-5-5-5-5-5-|-5-5-5-5-5-5-5-5-|-5-5-5-5-5-5-5-5-|-5-5-5-5-5-5-5-5-|

E|-----------------|-----------------|-----------------|-----------------|

G D

G|-----------------|-----------------|-----------------|-----------------|

D|-----------------|-----------------|-----------------|-----------------|

A|-----------------|-----------------|-5-5-5-5-5-5-5-5-|-5-5-5-5-5-5-5-5-|

E|-3-3-3-3-3-3-3-3-|-3-3-3-3-3-3-3-3-|-----------------|-----------------|

A G D

G|-----------------|-----------------|-----------------|-----------------|

D|-----------------|-----------------|-----------------|-----------------|

A|-----------------|-------2-2-3-3-4-|-5-5-5-5-5-5-5-5-|-5-5-5-5-5-5-5-5-|

E|-5---5-5-5-5-5-5-|-3---3-----------|-----------------|-----------------|

A G D

G|-----------------|-----------------|-----------------|-----------------|

D|-----------------|-----------------|-----------------|-----------------|

A|-----------------|-------2-2-3-3-4-|-5-5-5-5-5-5-5-5-|-5-5-5-5-5-5-5-5-|

E|-5---5-5-5-5-5-5-|-3---3-----------|-----------------|-----------------|

A G D D

G|-----------------|-----------------|-7-5-------------|-----------------|

D|-----------------|-----------------|-----7--6--5-5-3-|-----------------|

A|-----------------|-----------------|-----------------|-5---------------|

E|-5---5-5-5-5-5-4-|-3---------------|-----------------|-----------------|

G|-----------------|

D|-----------------|

A|-----------------|

E|---------------5-|

Get this song at:  amazon.com sheetmusicplus.com

Share your thoughts

0 Comments found