Ac Dc

Ac Dc - The Jack Live guitar tab

20/03/03

Hey, This is my first tab i'm putting on the net. This is for the live version

from If you want blood and ACDC live. I noticed the only "Jack" there was is from

High Voltage. This is the way I play it and to me this is how Malcome plays the riff.

So enjoy!!

Intro

E------------------------------

B------------------------------

G------------------------------

D--------------------------4-5-

A---2-4-5---2-2-4-5~---0-0-----

E-0----------------------------

E--------------------------

B--------------------------

G--------------------------

D---------------4446555----

A-------1--h3---2224333----

E--1--3--------------------

Verse- You bsasically just repeat the intro 16 time with doing a P.M. on the

first to notes, so it look like this:

E------------------------------

B------------------------------

G------------------------------ And so on...

D--------------------------4-5-

A---2-4-5---2-2-4-5~---0-0-----

E-0----------------------------

|--| |--| |--|

PM PM PM

(Fill)

E-------------------------- This is the little fill that Angus does

B-2/1512------------------ when Bon or Brian goes "She told me she

G-------------------------- was a virgin"

D--------------------------

A--------------------------

E--------------------------

Chours

E----------------------------

B----------------------------

G----------------------------

D----------------------------

A-2-2-2-2-2-2-2-2-2-2-2-2-4-4

E-0-0-0-0-0-0-0-0-0-0-0-0-2--

She's got the jack!

E----------------------------

B----------------------------

G----------------------------

D----------------------------

A-2-2-2-2-2-2-2-2-2-2-2-2-4-4

E-0-0-0-0-0-0-0-0-0-0-0-0-2--

She's got the jack!

E---------------------------------------------------------------------

B---------------------------------------------------------------------

G---------------------------------------------------------------------

D---------------------------------------------------------------------

A-2-2-2-2-2-2-2-2-2-2-2-2-2--2-222-4-4-4-4-4-4-4-4-4-2-2-2-4-2-4-2-4-2

E-0-0-0-0-0-0-0-0-0-0-0-0-0--0-000-2-2-2-2-2-2-2-2-2-0-0-0-2-0-2-0-2-0

She's got the jack! Jack Jack Jack Jack Jack Jack She's got the Jack!

While Angus is soloing Malcome goes

E-----------

B-----------

G-----------

D-----------

A-2--2--4---

E-0--0--2--0

After the crowd chants and the guitars get cranked back up Malcome plays the

Intro 8 times before going back to the previous riff. Then you play the chours.

**sorry no solo or outro. I've only been playing a few months.**

Have fun with this one. It's a great song and ACDC/AEROSMITH/KISS/DOORS RULE ALL!!!

DYLAN

Get this song at:  amazon.com

Share your thoughts

0 Comments found