Ac Dc

Ac Dc - Stink Around guitar tab

Intro + verse:

E|-------------------|--------------------|--------------------|

B|-------------------|--------------------|--------------------|

G|----------------2--|--2--------------7--|--7--------------2--|

D|----------------2--|--2--------------7--|--7--------------2--|

A|----------------0--|--0--------------5--|--5--------------0--|

E|-------------------|--------------------|--------------------|

|--------------------|--------------------|--------------------|

|--------------------|--------------------|--------------------|

|--2--------------7--|--7--------------2--|--2--------------7--|

|--2--------------7--|--7--------------2--|--2--------------7--|

|--0--------------5--|--5--------------0--|--0--------------5--|

|--------------------|--------------------|--------------------|

bridge:

|--------------------|------------------------|----------------------|

|--------------------|------------------------|----------------------|

|--7-----------------|---------------------2--|----2-------2---------|

|--7--------------2--|--2--2-------2-------0--|----0-------0---------|

|--5--------------0--|--0--0-------0----3-----|-------3---------3----|

|--------------------|--------3---------------|----------------------|

|------------------------|----------------------|------------------------|

|------------------------|----------------------|------------------------|

|---------------------2--|----2-------2---------|---------------------2--|

|--2--2-------2-------0--|----0-------0---------|--2--2-------2-------0--|

|--0--0-------0----3-----|-------3---------3----|--0--0-------0----3-----|

|--------3---------------|----------------------|--------3---------------|

stick

|----------------------|------------------------|---------------------|

|----------------------|------------------------|---------------------|

|----2-------2---------|------------------------|---------------------|

|----0-------0---------|--2--2-------2-------2--|----2-------2--------|

|-------3---------3----|--0--0-------0-------0--|----0-------0--------|

|----------------------|--------3---------3-----|-------3-------------|

around

|-------------------|-------------------|-----------------------|

|--3----------------|--3----------------|-----------------------|

|--2----------------|--0----------------|-----------------------|

|--0----------------|--0----------------|--2----4----2----4--2--|

|-------------------|-------------------|--0----0----0----0--0--|

|-------------------|--3----------------|-----------------------|

stick around

|----------------------|-------------------|-------------------|

|----------------------|--3----------------|--3----------------|

|----------------------|--2----------------|--0----------------|

|----2--4----2----2----|--0----------------|--0----------------|

|----0--0----0----0----|-------------------|-------------------|

|----------------------|-------------------|--3----------------|

to verse:

|-------------------|-------------------|--------------------|

|-------------------|-------------------|--------------------|

|--2----------------|----------------2--|--2--------------7--|

|--2----------------|----------------2--|--2--------------7--|

|--0----------------|----------------0--|--0--------------5--|

|-------------------|-------------------|--------------------|

|--------------------|--------------------|--------------------|

|--------------------|--------------------|--------------------|

|--7--------------2--|--2--------------7--|--7--------------2--|

|--7--------------2--|--2--------------7--|--7--------------2--|

|--5--------------0--|--0--------------5--|--5--------------0--|

|--------------------|--------------------|--------------------|

solo on E and D

|------------------|

|-------------3----|

|-------1-----2----|

|-------2-----0----|

|-------2----------|

|-------0----------|

Get this song at:  amazon.com sheetmusicplus.com

Share your thoughts

0 Comments found