Ac Dc

Ac Dc - Stiff Upper Lip bass tab

Verses/Solo

G|------------------------

D|------------------------

A|------------------------

E|--5-5-5-5-5--5-5-5-5-5--

Pre-Chorus

G|----------------------------------------------------

D|----------------------------------------------------

A|----------------------------------------------------

E|--5-5-5-5-5--2-2-3-3-4-4--5-5-5-5-5--2-2-3-3-4-4-5--

Chorus

G|----------------------------------------------------------

D|----------------------------------------------------------

A|--------------------------------------------------5----5--

E|--5-5-5-5-5--2-2-3-3-4-4-5-5-5-5-5-2-2-3-3-4-4-5----------

Bridge

G|------------------------------------

D|------------------------------------

A|------------------------------------

E|--5-5-5-----5-5-5----2-2-3-3-4-4-5--

G|------------------------------------------------------------

D|------------------------------------------------------------

A|------------------------------------------------------------

E|--5-5-5-5-5--2-2-3-3-4-4-5-5-5-5-5-2-2-3-3-4-4-5-5-5-5-5-5--

Outro

G|-----------------------------------------------------------

D|-----------------------------------------------------------

A|-----------------------------------------------------------

E|--5--3-0-----5--3-0-----5-3-0-----5-3-0----5-5-5--------5--

Get this song at:  amazon.com sheetmusicplus.com

Share your thoughts

0 Comments found