Ac Dc

Ac Dc - Star Spangled Banner guitar tab

tabbed by:devineb lol

e--0-------0-5--9-7-5---------0-0-9-7-5-4-2-4-5-5-------

B----2---2------------2-4-5-----------------------5-2---

G------2----------------------------------------------2-

D-------------------------------------------------------

A-------------------------------------------------------

E-------------------------------------------------------

e--0-------0-5--9-7-5---------0-0-9-7-5-4-2-4-5-5-------

B----2---2------------2-4-5-----------------------5-2---

G------2----------------------------------------------2-

D-------------------------------------------------------

A-------------------------------------------------------

E-------------------------------------------------------

e--9-9-9-10-12-12--10-9-7-9-10-10-

B---------------------------------

G---------------------------------

D---------------------------------

A---------------------------------

E---------------------------------

e-10-9--7-5-4--2-4-5--5--------

B------------------------5-2---

G----------------------------2-

D------------------------------

A------------------------------

E------------------------------

e--0-5-5-5-4-2-2-2-7-10-9-7-5---4-

B---------------------------------

G---------------------------------

D---------------------------------

A---------------------------------

E---------------------------------

e-0-0-5--7-9-10-12--5-7-9--10-7--5-

B----------------------------------

G----------------------------------

D----------------------------------

A----------------------------------

E----------------------------------

Get this song at:  amazon.com sheetmusicplus.com

Share your thoughts

0 Comments found