Ac Dc

Ac Dc - Stand Up guitar tab

AC/DC - Stand Up

Tabbed By: MyDingALing456

Email: anguswalk789@yahoo.com

Tuning: Standard (E A D G B E)

Another great song from Fly on the Wall(1985).

Intro: Angus plays this. It fades in.

E|------------------------||

B|--6-6-6-6-6--3-3-3-3-3--||

G|------------------------||

D|--5-5-5-5-5--5-5-5-5-5--||

A|------------------------||

E|------------------------||

Verse:Angus

E|--3-------------------------------||

B|--3-----3-----3--3-----3----3--3--||

G|--0-----2-----2--2-----2----2--2--||

D|--0--3--0-----0--0--3--0----0--0--||

A|-----------3--------------3-------||

E|----------------------------------||

Verse:Malcolm

E|--3--------------------------||

B|--3-----3-----3-----3-----3--||

G|--0-----2-----2-----2-----2--||

D|--0--3--0-----0--3--0-----0--||

A|-----------3-----------3-----||

E|-----------------------------||

Every once in a while they play the intro.

Chorus:Malcolm x4

E|----------3----------3--||

B|--3-------3----1--1--3--||

G|--2-------0----2--0--0--||

D|--0-------0----3--2--0--||

A|----------x----3--3--x--||

E|----------3----------3--||

Stand Up

Chorus:Angus x4

E|-----3-------------------------------||

B|--3--3----------1-1------------------||

G|--2--0------0-2------2-0-------------||

D|--0--0--0-3---------------0-3-0////--||

A|-----x-------------------------------||

E|-----3-------------------------------||

Solo:Malcolm

E|--------------------------------------------------------------------||

B|--------------------------------------------------------------------||

G|-----2-----2-----2-----2------------------------------1-1-----------||

D|-----2-----2-----2-----2--------------------------0-2-----2-0-------||

A|--3--0-----0--3--0-----0play this twice then--0-3-------------0-3-0-||

E|--------3-----------3-----------------------------------------------||

There ya go.

ILoveLB.

Get this song at:  amazon.com

Share your thoughts

0 Comments found