Ac Dc

Ac Dc - Spellbound guitar tab

AC/DC - Spellbound

tabbed by lmnop07

B

|---------------------------------------------|

|--------------------8---8----------------3---|

|--------2-----------9---7-----2----------2---|

|--------2-----------10--9-----2------3---0---|

|--------0------------------0--0------3-------|

|---3(5)------------------------------1-------|

WORK IT OUT

CHORUS

REPEAT

|-----------------------||-------------------------------------------------------------------|

|-----------------------||-------------------------------------------------------------------|

|--7-7--7-7-7-7---7-7-7-||---------2--2---2------X--5--5--5---------2--2--2---2--2--2--2--2--|

|--7-7--7-7-7-7---7-7-7-||---------2--2---2--5---X--5--5--5--5--5---2--2--2---2--2--2--2--2--|

|--5-5--5-5-5-5---5-5-5-||---------0--0---0--2---X--3--3--3--2--2---0--0--0---0--0--0--0--0--|

|-----------------------||--2-3-2------------------------------------------------------------|

|------------------------------------------

|------------------------------------------

|--5--5--5--5--5---------------------------

|--5--5--5--5--5---5--5--5--5--5--2--------

|--3--3--3--3--3---5--5--5--5--5--2--------

|------------------3--3--3--3--3--0--------

Get this song at:  amazon.com sheetmusicplus.com

Share your thoughts

0 Comments found