Ac Dc

Ac Dc - Solo (tnt) guitar tab

here is my tab for the solo enjoy and also my band has a site www.nomadica.tk check us out

---------|-------------3-2-0----------------------------|--------------12------

---------|--------------------3-2-0---------------------|-----15(17)-------15--

---2(4)--|-2(4)-(2)-----------------2^0------0----------|----------------------

---------|-------------------------------3^0------------|----------------------

---------|----------------------------------------------|----------------------

---------|---------------------------------------19--0-|-(0)------------------

~~~~~ b

----------------------------------------------------------12--------------12---

-12------12--------------------------------------------12-----15^12-12-12----12

-----14------14-14^12-----14-----12-------14(16)--(14)-------------------------

-----------------------14----14------------------------------------------------

-------------------------------------------------------------------------------

-------------------------------------------------------------------------------

b ~~~~~~~~ b

----------|----12-15-12----12--------------------------------------------------

-15(17)---|-------------15-----15-12----12-------------------------------------

----------|--------------------------14----14--12-----14----12(13)-------------

----------|----------------------------------------14----14--------------------

----------|--------------------------------------------------------14-12-12-14

----------|--------------------------------------------------------------------

b ~~~~~~~~~~~~~~~~~~~~~~~~~~~~~~~~~

------------17(19)------------|-------------------(17)4----------------------

------------------------------|------------------------------------------------

------------------------------|----------------------------0-------------------

------------------------------|------------------------------------------------

------------------------------|------------------------------------------------

-----0------------------------|------------------------------------------------

Get this song at:  amazon.com

Share your thoughts

0 Comments found