Ac Dc

Ac Dc - Show Business bass tab

4/4 swung eighths

>>>>>>>>>>>=hold

intro

|----------------||----------------||----------------||----------------||----------------|

|----------------||----------------||7-7-7-7-7-7-7-7-||----------------||----------------|

|------rest------||7-7-7-7-7-7-7-7-||----------------||7-7-7-7-7-7-7-7-||7-7-7-7-7-7-7-7-|

|----------------||----------------||----------------||----------------||----------------|

|----------------||----------------||----------------||----------------||----------------|

|7-7-7-7-7-7-7-7-||7-7-7-7-7-7-7-7-||----------------||----------------||----------------|

|----------------||----------------||7-7-7-7-7-7-7-7-||7-7-7-7-7-7-7-7-||9>>>>>>>>>>>>>>>|

|----------------||----------------||----------------||----------------||----------------|

you learn to sing you learn to play

|----------------||----------------||--------|-------||----------------||----------------|

|7>>>>>>>>>>>>>5-||----6-6-7-7-8-8-||9-0-8-9-|.--7---||----------5>>>>>||------------7-5-|

|----------------||7-7-------------||--------|.7---5-||7---------------||7---------7-----|

|----------------||----------------||--------|-------||----------------||----------------|

whydontthebusinessmeneverlearntopay thats show business (show business) show business

|----------------||----------------||----------------||----------------||----------------|

|----------------||----------------||7-7-7-7-7-7-7-7-||7-7-7-7-7-7-7-7-||----------------|

|7---------------||7-7-5-5-4-4-----||----------------||----------------||7-7-7-7-7-7-7-7-|

|----------------||------------7-7-||----------------||----------------||----------------|

(show business) show business that's the way it goes

|----------------||----------------||----------------||----------------||----------------|

|----------------||----------------||7>>>>>>>>>>>>>5-||----6-6-7-7-8-8-||9-0-8-9-----7---|

|7-7-7-7-7-7-7-7-||9>>>>>>>>>>>>>>>||----------------||7-7-------------||----------7---5-|

|----------------||----------------||----------------||----------------||----------------|

you play in halls play in bars youre climbin walls chasin stars thats show business

|----------------||----------------||----------------||----------------||----------------|

|----------5>>>>>||------------7-5-||----------------||----------------||7-7-7-7-7-7-7-7-|

|7---------------||7---------7-----||7---------------||7-7-5-5-4-4-----||----------------|

|----------------||----------------||----------------||------------7-7-||----------------|

(show business) show business (show business) show business thats the way it goes

|----------------||----------------||----------------||----------------||----------------|

|7-7-7-7-7-7-7-7-||----------------||----------------||------------6---||7-7-8---9-0-5---|

|----------------||7-7-7-7-7-7-7-7-||7-7-7-7-7-7-7-7-||9---8---9-------||----------------|

|----------------||----------------||----------------||----------------||----------------|

solo

|----------------||----------------||----------------||----------------||----------------|

|----6-6-7-7-8-8-||9-0-8-9>>>>>>>>>||----------------||7-7-----7-7-----||----------------|

|7-7-------------||----------------||7-7-----7-7-----||----9-9-----9-9-||7-7-----7-7-----|

|----------------||----------------||----9-9-----9-9-||----------------||----9-9-----9-9-|

|----------------||----------------||----------------||----------------||----------------|

|----------------||7-7-----7-7-----||7-7-----7-7-----||----------------||----------------|

|7-7-----7-7-----||----9-9-----9-9-||----9-9-----9-9-||7-7-----7-7-----||7-7-----7-7-----|

|----9-9-----9-9-||----------------||----------------||----9-9-----9-9-||----9-9-----9-9-|

|----------------||----------------||----------------||----------------||----------------|

|----------------||7>>>>>>>>>>>>>5-||----6-6-7-7-8-8-||9-0-8-9>>>>>>>>>||----------------|

|9>>>>>>>>>>>>>>>||----------------||7-7-------------||----------------||7-7-7-7-7-7-7-7-|

|----------------||----------------||----------------||----------------||----------------|

|----------------||----------------||----------------||----------------||----------------|

|7-7-7-7-7-7-7-7-||----------------||----------------||7-7-7-7-7-7-7-7-||7-7-7-7-7-7-7-7-|

|----------------||7-7-7-7-7-7-7-7-||7-7-7-7-7-7-7-7-||----------------||----------------|

|----------------||----------------||----------------||----------------||----------------|

1,2_______________

|----------------||----------------||----------------||----------------||----------------|

|----------------||----------------||------------6---||7-7-8---9-0-5---||----6-6-7-7-8-8-|

|7-7-7-7-7-7-7-7-||7-7-7-7-7-7-7-7-||9---8---9-------||----------------||7-7-------------|

|----------------||----------------||----------------||----------------||----------------|

__________ 3/4 3________

|--------|| |------------||------------||------------||------------||------------||-----------||

|9-0-8-9.|| |------------||------------||------------||------------||------------||-----------||

|-------.|| |7-------7---||5-------5---||4-------4---||3-------3---||------------||8---7>>>>>>||

|--------|| |------------||------------||------------||------------||7-----------||-----------||

Get this song at:  amazon.com

Share your thoughts

0 Comments found