Ac Dc

Ac Dc - Shot Down In Flames bass tab

AC DC: SHOT DOWN IN FLAMES!

Tuning: E A D G

Verse(and anything else in the song but the chorus!)

G|---------------------------------------------------------------------------|

D|---------------------------------------------------------------------------|

A|-----------------4-4-4-4-4-4-4-4-----------------4-4-4-4-4-4-4-4-----------|

E|-4-4-4-4-4-4-4-4-----------------4-4-4-4-4-4-4-4---------------------------|

G|---------------------------------------------------------------------------|

D|---------------------------------------------------------------------------|

A|--------------------4-4-4-4-4-4-4-4-----------------------4/---------------|

E|4-4-4-4-4-4-4-4----------------------4-4-4-4-4-4-4-4-----------------------|

Chorus

G|----------------------------------------------------------------------------|

D|----------------------------------------------------------------------------|

A|----------------4--4-2---2-2h4-----------------4--4-2---2-2h4---------------|

E|-4--4-2---2-2h4----------------4--4-2---2-2h4-------------------------------|

G|---------------------------------------------------------------------------|

D|---------------------------------------------------------------------------|

A|-------------4?4-2---2-2h4---------------2h4-4-2h4-4-2h4-4-2h4-4-2h4-4-2h4-|

E|-4--4-2---2-2h4--------------4h4-2---2-2h4---------------------------------|

Well thats it just get the timing right and you will be good to go!

Rate when you are done :)

Get this song at:  amazon.com

Share your thoughts

0 Comments found