Ac Dc

Ac Dc - Shook Me All Night Long guitar tab

|-3------(3)--------|--------------------|-----------------|-----------------|

|-3------(3)-----10-|-(10)-8-8---8-7-----|-3-------------3-|-(3)-------3-----|

|-0------(0)------7-|--(7)-7---7-----7---|-2-------2-----2-|-(2)-------2-----|

|-0------(0)--------|------------------0-|-0-------3b3.5-0-|-(0)---3s4---3-0-|

|-------------------|--------------------|-----------------|-----------------|

|-------------------|--------------------|-----------------|-----------------|

|

||-3-----------------|--------------------|-----------------|-----------------|

|-3--------------10-|-(10)-8-8---8-7-----|-3-------------3-|-(3)-------3-----|

|-0---------------7-|--(7)-7-7-7-----7---|-2-------2-----2-|-(2)-------2-----|

|-0--0-0--0--0-0----|------------------0-|-0-------3b3.5-0-|-(0)---3s4---3-0-|

|-------------------|--------------------|-----------------|-----------------|

|-------------------|--------------------|-----------------|-----------------|

|-3------(3)--------|--------------------|----------|-------------|

|-3------(3)-----10-|-(10)-8-8---8-7-----|-3--------|-(3)---------|

|-0------(0)------7-|--(7)-7---7-----7---|-2--------|-(2)---------|

|-0------(0)--------|------------------0-|-0--------|-(0)---------|

|-------------------|--------------------|----------|-------------|

|-------------------|--------------------|----------|-------------|

| |-3-----------------|--------------------|----------|-------------|

|-3--------------10-|-(10)-8-8---8-7-----|-3--------|-(3)---------|

|-0---------------7-|--(7)-7-7-7-----7---|-2--------|-(2)---------|

|-0--0-0--0--0-0----|------------------0-|-0--------|-(0)---------|

|-------------------|--------------------|----------|-------------|

|-------------------|--------------------|----------|-------------|

4x

||--------------|-----------------|---------------|------------------||

||o-0---------1-|-(1)-1-0--1--0-3-|-(3)---------0-|-(0)-0-3--0--3---o||

||--0---------0-|-(0)-0-0--0--0-2-|-(2)---------0-|-(0)-0-2--0--2----||

||--0---------2-|-(2)-2-0--2--0-0-|-(0)---------0-|-(0)-0-0--0--0----||

||o-----------3-|-(3)-3----3------|---------------|-----------------o||

||--3-----------|-------3-----3---|-------------3-|-(3)-3----3-------||

|-------------|-----------------|---------------|----------------|

|-0---------1-|-(1)-1-0--1--0-3-|-(3)---------0-|-(0)-0-3--0--3--|

|-0---------0-|-(0)-0-0--0--0-2-|-(2)---------0-|-(0)-0-2--0--2--|

|-0---------2-|-(2)-2-0--2--0-0-|-(0)---------0-|-(0)-0-0--0--0--|

|-----------3-|-(3)-3----3------|---------------|----------------|

|-3-----------|-------3-----3---|-------------3-|-(3)-3----3-----|

|-------------|-----------------|-----------------|---------------|

|-0---------1-|-(1)-1-0--1--0-3-|-(3)--3--3-3-3-3-|-(3)--3--3--3--|

|-0---------0-|-(0)-0-0--0--0-2-|-(2)--2--2-2-2-2-|-(2)--2--2--2--|

|-0---------2-|-(2)-2-0--2--0-0-|-(0)--0--0-0-0-0-|-(0)--0--0--0--|

|-----------3-|-(3)-3----3------|-----------------|---------------|

|-3-----------|-------3-----3---|-----------------|---------------|

||------------------|---------------------|

||o----3--(3)-------|-------3-------3---3-|

||-----0--(0)-------|-----0-------------2-|

||-----0--(0)-------|-----------------0-0-|

||o-----------0-2-3-|-(3)-----2-(2)-------|

||--3--3--(3)-------|---------------------|

|-------------------|-----------------------||

|-(3)--3--(3)-------|-------3-3-(3)-3------o||

|-(2)--2--(2)-------|-----0---0-(0)---------||

|-(0)--0--(0)-------|-----------------------||

|-------------0-2-3-|-(3)-----2-(2)---2-0--o||

|-------------------|-----------------------||

3x

||--------------|-----------------|---------------|------------------||

||o-0---------1-|-(1)-1-0--1--0-3-|-(3)---------0-|-(0)-0-3--0--3---o||

||--0---------0-|-(0)-0-0--0--0-2-|-(2)---------0-|-(0)-0-2--0--2----||

||--0---------2-|-(2)-2-0--2--0-0-|-(0)---------0-|-(0)-0-0--0--0----||

||o-----------3-|-(3)-3----3------|---------------|-----------------o||

||--3-----------|-------3-----3---|-------------3-|-(3)-3----3-------||

|-------------|-----------------|-----------------|---------------|

|-0---------1-|-(1)-1-0--1--0-3-|-(3)--3--3-3-3-3-|-(3)--3--3--3--|

|-0---------0-|-(0)-0-0--0--0-2-|-(2)--2--2-2-2-2-|-(2)--2--2--2--|

|-0---------2-|-(2)-2-0--2--0-0-|-(0)--0--0-0-0-0-|-(0)--0--0--0--|

|-----------3-|-(3)-3----3------|-----------------|---------------|

|-3-----------|-------3-----3---|-----------------|---------------|

||------------------|---------------------|

||o----3--(3)-------|-------3-------3---3-|

||-----0--(0)-------|-----0-------------2-|

||-----0--(0)-------|-----------------0-0-|

||o-----------0-2-3-|-(3)-----2-(2)-------|

||--3--3--(3)-------|---------------------|

|-(3)--3--(3)-------|-------3-3-(3)-3------o||

|-(2)--2--(2)-------|-----0---0-(0)---------||

|-(0)--0--(0)-------|-----------------------||

|-------------0-2-3-|-(3)-----2-(2)---2-0--o||

|-------------------|-----------------------||

|-----------------|---------------------|-2-2-2--(2)-2-2-2-|

|----3--(3)-------|-------3-------3---3-|-3-3-3--(3)-3-3-3-|

|----0--(0)-------|-----0-------------2-|-2-2-2--(2)-2-2-2-|

|----0--(0)-------|-----------------0-0-|-0-0-0--(0)-0-0-0-|

|-----------0-2-3-|-(3)-----2-(2)-------|------------------|

|-3--3--(3)-------|---------------------|------------------|

|-2---3--3--3-2-|-(2)-2-2--2-2-2-2-|-(2)-2-2--2-2-2-2-|

|-3---3--3--3-3-|-(3)-3-3--3-3-3-3-|-(3)-3-3--3-3-3-3-|

|-2---0--0--0-2-|-(2)-2-2--2-2-2-2-|-(2)-2-2--2-2-2-2-|

|-0---0--0--0-0-|-(0)-0-0--0-0-0-0-|-(0)-0-0--0-0-0-0-|

|-------------0-|-(0)-0-0--0-0-0-0-|-(0)-0-0--0-0-0-0-|

|---3-3--3--3---|------------------|------------------|

Guitar Solo

|-----------------------|-3--------------------|

|-----------------------|---3-6----------------|

|-5b7======(5)-(5)r-----|-------5b7==(5)r5-3---|

|-----------------------|--------------------5-|

|-----------------------|----------------------|

|-----------------------|----------------------|

|-----------------------|----------------------|

|-----------------------|-------3------------3-|

|-----------------------|-------0------------2-|

|---------------------5-|--------------------0-|

|-5-------------0---2-3-|-------2--------------|

|-3---------------------|----------------------|

|-----------------|-----------------|

|-----------------|----------3------|

|-----------------|----------3------|

|---------5-3-----|-------------5---|

|-5-(5)-------5-3-|-(3)-----------5-|

|-----------------|------6-3--------|

|-----------------|-----------------|

|-----------------|--------3--------|

|-----------------|--------0--------|

|---------------5-|-----------------|

|-----------0-2-3-|--------2------5-|

|-----------------|---------------3-|

|--------------------|----------------------------|

|----------------6-6-|-(6)-----8-8-(8)---8-10b12==|

|----[3]-----5s7-----|-----7s9---------9----------|

|-5------------------|----------------------------|

|--------------------|----------------------------|

|--------------------|----------------------------|

|--------------------|----------------------2-----|

|------------------3-|-(3)-------3-(3)------3-----|

|------------------0-|-(0)-------0-(0)------2-----|

|------------------2-|-(2)------------------0-----|

|--------------0-2-3-|-(3)-------2-(2)---0--------|

|--------------------|----------------------------|

|-------10-----------------------------|----------------------------------|

|-(10)r----10b12==(10)r-8---(8)-11b13==|=(11)r-10b12-8----8------18b20====|

|--------------------------------------|---------------9-------9----------|

|--------------------------------------|----------------------------------|

|--------------------------------------|----------------------------------|

|--------------------------------------|----------------------------------|

|--(2)------2-----------2--------------|----------------------------------|

|--(3)------3-----------3--------3-----|--(3)--------3-3-(3)-3------------|

|--(2)------2-----------2--------0-----|--(0)---0------0-(0)-0------------|

|--(0)------0-----------0--------------|----------------------------------|

|-------------------------0--2---3-----|--(3)----------2-(2)-2-2--0-------|

|--------------------------------------|----------------------------------|

|-----------------15-------|--------------------------------------|

|-18--(18)--(18)r----15-18-|--------------------------------------|

|--------------------------|-17b19r(17)p15----17--15-17b19==(17)r-|

|--------------------------|---------------17---------------------|

|--------------------------|--------------------------------------|

|--------------------------|--------------------------------------|

|--------------------------|--------------------------------------|

|-------3----(3)-----------|-------------3---------3----------3---|

|-------0----(0)-----------|---------0------------------------2---|

|-------0----(0)-----------|--------------------------0-------0---|

|------------------0--2--3-|-(3)------------2-(2)-----------------|

|--3----3----(3)-----------|--------------------------------------|

|----------------------------------------|-------------------------18b20==|

|-18---------------18--------------------|-17--15-17-15-(15)\---15--------|

|-----17b19==(17)r----17b19==(17)r-15----|-17--15-17-15-(15)\-------------|

|----------------------------------------|--------------------------------|

|-------------------------------------17-|--------------------------------|

|----------------------------------------|--------------------------------|

|----------------------------------------|--------------------------------|

|-(3)----------3------(3)----------------|---------3--3--(3)--3-----------|

|-(2)----------2------(2)----------------|------0-----0--(0)--------------|

|-(0)----------0------(0)----------------|--------------------------------|

|------------------------------0----2--3-|-(3)--------2--(2)-----2--0-----|

|----------------------------------------|--------------------------------|

|-(18)r=(18)--18b20-17pb18r(17)p15-|-17-----15-------------------------|

|----------------------------------|-----17----18-(18)b20==(18)r-15-18-|

|----------------------------------|-----------------------------------|

|----------------------------------|-----------------------------------|

|----------------------------------|-----------------------------------|

|----------------------------------|-----------------------------------|

|

|----------------------------------|-----------------------------------|

|---------3---(3)------------------|---------3---------------3-------3-|

|---------0---(0)------------------|------0--------------------------2-|

|---------0---(0)------------------|------------------------------0--0-|

|--------------------0-------2---3-|-(3)--------2--(2)-----------------|

|---3-----3---(3)------------------|-----------------------------------|

|-------------------------------------|------------------------------|

|-------------------------------------|-20-----20-20-22b24r(22)-20---|

|-17b19r(17)-15-19-(19)-(19)\---19-21-|-----21-----------------------|

|-------------------------------------|------------------------------|

|-------------------------------------|------------------------------|

|-------------------------------------|------------------------------|

Get this song at:  amazon.com

Share your thoughts

0 Comments found