Ac Dc

Ac Dc - Shook Me All Night Long bass tab

Ok here is AC/DC's Shook Me All Night Long

Tabbed by Jesse

Verse after you do this once you go to

G-------------------------------------------

D-------------------------------------------

A----33---3--5------------------------------

E--3----3---3-------------------------------

Verse 10X

G------------------------------------------

D------------------------------------------

A----3---3--5------------------------------

E------3---3-------------------------------

Pre Chorus DO A BUNCH OF FIVES UNTIL...

G---------------------------------------------

D---------------------------------------------

A--5------------------------------------------

E---------------------------------------------

Chorus 4X

G---------------------------------------------

D---------------------------------------------

A----02-3-2-5---------------------------------

E--3------------------------------------------

Verse after you do this once you go to

G-------------------------------------------

D-------------------------------------------

A----33---3--5------------------------------

E--3----3---3-------------------------------

Verse 10X

G------------------------------------------

D------------------------------------------

A----3---3--5------------------------------

E------3---3-------------------------------

PRe Chorus DO A BUNCH OF FIVES UNTIL...

G---------------------------------------------

D---------------------------------------------

A--5------------------------------------------

E---------------------------------------------

Chorus 4X

G---------------------------------------------

D---------------------------------------------

A----02-3-2-5---------------------------------

E--3------------------------------------------

Pre Solo Do A BUCH OF FIVES Until...

G---------------------------------------------

D---------------------------------------------

A--5------------------------------------------

E---------------------------------------------

Bridge 8X For the first two times Play the notes short.

G---------------------------------------------

D---------------------------------------------

A----02-3-2-5---------------------------------

E--3------------------------------------------

Chorus 8X

G---------------------------------------------

D---------------------------------------------

A----02-3-2-5---------------------------------

E--3------------------------------------------

Do A buch of fives until song ends.

G---------------------------------------------

D---------------------------------------------

A--5------------------------------------------

E---------------------------------------------

Enjoy!

Get this song at:  amazon.com

Share your thoughts

0 Comments found